Guitar Tabs for Romance De Amour

(/) Slide Up  (\) Slide Down  (h) Hammer On  (p) Pull Off  (b) Bend (r) Release (v) Vibrato (x) Muted

Tabs for Song : 

Song lyrics here
E|--7--------7--------7--------7--------5--------3--------3--------2--------0--------0--------3--------7--------
B|-----0--------0--------0--------0--------0--------0--------0--------0--------0--------0--------0--------0-----
G|--------0--------0--------0--------0--------0--------0--------0--------0--------0--------0--------0--------0--
D|--------------------------------------------------------------------------------------------------------------
A|--------------------------------------------------------------------------------------------------------------
E|--0--------------------------0--------------------------0--------------------------0--------------------------

E|--12-------12-------12-------12-------10-------8--------8--------7--------5--------5--------7--------8--------
B|-----0--------0--------0--------0--------0--------0--------5--------5--------5--------5--------5--------5-----
G|--------0--------0--------0--------0--------0--------0--------5--------5--------5--------5--------5--------5--
D|--------------------------------------------------------------------------------------------------------------
A|--------------------------------------------------------0--------------------------0--------------------------
E|--0--------------------------0--------------------------------------------------------------------------------

E|--7--------8--------7--------11-------8--------7--------7--------5--------3--------3--------2--------0--------
B|-----7--------7--------7--------7--------7--------7--------0--------0--------0--------0--------0--------0-----
G|--------8--------8--------8--------8--------8--------8--------0--------0--------0--------0--------0--------0--
D|--------------------------------------------------------------------------------------------------------------
A|--7--------------------------7--------------------------------------------------------------------------------
E|--------------------------------------------------------0--------------------------0--------------------------

E|--2--------2--------2--------2--------3--------2--------0--------0--------0--------0--------------------------
B|-----0--------0--------0--------0--------0--------0--------0--------0--------0-----0--------------------------
G|--------2--------2--------2--------2--------2--------2--------0--------0--------0--0--------------------------
D|--------------------------------------------------------0-----------------------------------------------------
A|--2--------------------------2-----------------------------------0--------------------------------------------
E|--------------------------------------------------------------------------0--------0--------------------------

E|--4--------4--------4--------4--------2--------0--------------------------------------------------------------
B|-----0--------0--------0--------0--------0--------0-----5--------4--------4--------4--------3--------4--------
G|--------1--------1--------1--------1--------1--------1-----2--------2--------2--------2--------2--------2-----
D|--------------------------------------------------------------4--------4--------4--------4--------4--------4--
A|--------------------------------------------------------2--------------------------2--------------------------
E|--0--------------------------0--------------------------------------------------------------------------------

E|--9--------9--------9--------9--------11-------9--------9--------7--------7--------7--------9--------11-------
B|-----7--------7--------7--------7--------7--------7--------9--------9--------9--------9--------9--------9-----
G|--------8--------8--------8--------8--------8--------8--------9--------9--------9--------9--------9--------9--
D|--------------------------------------------------------------------------------------------------------------
A|--------------------------------------------------------------------------------------------------------------
E|--7--------------------------7--------------------------0--------------------------0--------------------------

E|--12-------12-------12-------12-------11-------10-------9--------9--------9--------9--------7--------5--------
B|-----9--------9--------9--------9--------9--------9--------5--------5--------5--------5--------5--------5-----
G|--------9--------9--------9--------9--------9--------9--------6--------6--------6--------6--------6--------6--
D|--------------------------------------------------------------------------------------------------------------
A|--------------------------------------------------------0--------------------------0--------------------------
E|--0--------------------------0--------------------------------------------------------------------------------

E|--4--------4--------4--------4--------5--------2--------0--------0--------0--------0--------------------------
B|-----4--------4--------4--------4--------4--------4--------0--------0--------0-----0--------------------------
G|--------2--------2--------2--------2--------2--------2--------1--------1--------1--0--------------------------
D|--------------------------------------------------------2-----------------------------------------------------
A|--2--------------------------2-----------------------------------2--------------------------------------------
E|--------------------------------------------------------------------------4--------0--------------------------

Song lyrics here
E|--
B|--
G|--
D|--
A|--
E|--

Now supports capo and sound effects for vibrato/pull-off/hammer/bends/mutes etc !!! Checkout help section
tabs and chords, guitar tabs, music contests, music covers, songsterr, reverbnation, renditions, tabulature, bollywood chords, ultimate guitar, yousician, guitar lessons, torrins, fender, gibson, acoustic guitar, electric guitar, youtube covers, gootar, guitar tuner, A-Z tabs, 911 tabs