820 - Guitar Tabs

(/) Slide Up  (\) Slide Down  (h) Hammer On  (p) Pull Off  (b) Bend (r) Release (v) Vibrato (x) Muted

Tabs for Song : 
BPM : 200

intro (dedilhado/arpeggio)

E|--4--2
B|--4--2
G|--4--2
D|--6--4
A|-----
E|-----

Intro (acordes)
E|--------------
B|----5-7-7-9---
G|----6-6-8-8---
D|----7-7-9-9---
A|----0-0-0-0---
E|--------------

Intro (pré verso)

E|-----------------
B|-----------------
G|-----------------
D|--------0--2-0--
A|--2--0-----------
E|-----------------

Verso

E|--------------------------
B|--------------------------
G|--------------------------
D|--0-----0-----2-----2--2~p0--
A|-----2--------------------
E|-----------0-----0--------

E|-----------------------------------------
B|-----------------------------------------
G|-----------------------------------------
D|-----0-----0--------------------------------0--
A|--2-----2-----2--------------------------
E|-----------------0x--0x--2x--2x--3x--3x--5x-----

E|--------------------------
B|--------------------------
G|--------------------------
D|--0-----0-----2-----2--2~p0--
A|-----2--------------------
E|-----------0-----0--------


E|--------------------------------------
B|--------------------------------------
G|-----------------------------0--------
D|--------0--0-----0-----0--------0-----
A|--2/55--------5-----4-----4--------4----
E|--------------------------------------

Ponte A (2x)

E|--------------
B|--3--5--5--7--
G|--4--4--6--6--
D|--5--5--7--7--
A|--0--0--0--0--
E|--------------

Ponte B


E|---------------------------
B|--3-----------10----10h1210
G|--4-----8-9/11---11--------
D|--5--5/9-------------------
A|--0------------------------
E|---------------------------

E|---------------------------
B|--3-----------10-----------
G|--4-----8-9/11---11~~~~----
D|--5--5/9-------------------
A|--0------------------------
E|---------------------------

Refrão 


E|--7-4-2-2
B|--9-4-2h4
G|--8-4-3-3
D|--9-6-4-4
A|---------
E|---------

E|--7-5-2-2/5
B|--9-5-2h4/7
G|--8-6-2-2/6
D|--9-7-4-4/7
A|------------
E|-----------

Solo

Solo outro

E|-------------------------------------
B|---------10--10--10------------------
G|--9-9/11---11--11--8h9p8-6h8p6-4h6p4~
D|--7----------------------------------
A|--0----------------------------------
E|-------------------------------------
tabs and chords, guitar tabs, music transcription, music technology, deep learning, music information retrieval, transcribe into tabs & chords, chordify, music renditions, songsterr, reverbnation, tabulature, bollywood chords, ultimate guitar, yousician, guitar lessons, acoustic guitar, electric guitar, guitar tuner, 911 tabs