Guitar Tabs for 4554

(/) Slide Up  (\) Slide Down  (h) Hammer On  (p) Pull Off  (b) Bend (r) Release (v) Vibrato (x) Muted

Tabs for Song : 
BPM : 200

Song lyrics here
E|-----------------------------------------------------
B|-----------------------------------------------------
G|-----7-----------------------------------------------
D|--9-----7--7--9--9--------7---------4/---------------
A|--------------------9--9-----7--7-----5--4-----------
E|--------------------------------------------4--2--3v-

E|--------------------------------------------------------10p9-----------------------------------------------------------------------------------------------------7-----7--10b12-
B|------------7b8--10b12----------------------------------------10-12-10-9-----9--10-12-10-9--------------------------------------------------------------------7-----10----------
G|-----------------------6--7--6-----------------------7v-------------------11----------------11-10-9-----9--10-11-10----------------------------------7---9b10-------------------
D|-----7--------------------------------------7--8--9--------------------------------------------------11-------------11-10-7-----------------7--8--9-----------------------------
A|--9-----9-----------------------9--7--8--9-----------------------------------------------------------------------------------9--8--7--8--9--------------------------------------
E|--------------------------------------------------------------------------------------------------------------------------------------------------------------------------------

Song lyrics here
E|--12b14-10--9h10p9--------------------------------------17----------------15p12----12-15p12-17p12-15p12-17p12----15p14h15-14----------12-17-15h17p15-12----------------------
B|--------------------10----------10v---14h15-14h15-17b19----17r19-15-------------15----------------------------15-------------15-12-15-------------------15-12----------------
G|------------------------9/-7\9--------------------------------------16v---------------------------------------------------------------------------------------15-12\11-------
D|-----------------------------------------------------------------------------------------------------------------------------------------------------------------------12v---
A|-----------------------------------------------------------------------------------------------------------------------------------------------------------------------------
E|-----------------------------------------------------------------------------------------------------------------------------------------------------------------------------

Paste any tab in acousterr's tab maker and we'll play it !!!
Now supports capo and sound effects for vibrato/pull-off/hammer/bends/mutes etc !!! Checkout help section
tabs and chords, guitar tabs, music transcription, music technology, deep learning, music information retrieval, transcribe into tabs & chords, chordify, music renditions, songsterr, reverbnation, tabulature, bollywood chords, ultimate guitar, yousician, guitar lessons, acoustic guitar, electric guitar, guitar tuner, 911 tabs