Guitar Tabs for 3

(/) Slide Up  (\) Slide Down  (h) Hammer On  (p) Pull Off  (b) Bend (r) Release (v) Vibrato (x) Muted

Tabs & Chords
BPM : 125.0
Check Track 2 for Chord Positions 

                                                          Am    Em    F  
E|--------------------------------------------------5-----7-----7--------
B|--------------------------------------------------------------------8--
G|-----------------------------------------------------------------------
D|-----------------------------------------------------------------------
A|--------6-----0--------------------------------------------------------
E|--7-----------------7--7--7-----3--7--7-----7--------------------------

Guitar Tabs for 3






                                                          Am    Em    F  
E|--------------------------------------------------------0-----0-----1--
B|--------------------------------------------------------1-----0-----1--
G|--------------------------------------------------------2-----0-----2--
D|--------------------------------------------------------2-----2-----3--
A|--------------------------------------------------------0-----2-----3--
E|--------------------------------------------------------------0-----1--

tabs and chords, guitar tabs, music transcription, music technology, deep learning, music information retrieval, transcribe into tabs & chords, chordify, music renditions, songsterr, reverbnation, tabulature, bollywood chords, ultimate guitar, yousician, guitar lessons, acoustic guitar, electric guitar, guitar tuner, 911 tabs