Ukulele Tabs for 1979

(/) Slide Up  (\) Slide Down  (h) Hammer On  (p) Pull Off  (b) Bend (r) Release (v) Vibrato (x) Muted

Tabs for Song : Smashing Pumpkins - 1979
BPM : 127

Verse
E|--------------------------------------------------------------------------------------
B|--2--2--2--2--2--2--2--3--3--3--3--3--3--3--3---7b8b7-7\5--5--3--5--7--10-10-10-10-10-
G|--2--2--2--2--2--2--2--2--2--2--2--2--2--2--2---0-----0----0--0--0--0--0--0--0--0--0--
D|--------------------------0--0--0--0--0--0--0-----------------------------------------

Pre-chorus
E|-----------------------------------------
B|--5--5--5--5--5--8--8--8--8--8--8--8--8--
G|--4--4--4--4--4--7--7--7--7--7--7--7--7--
D|--2--2--2--2--2--5--5--5--5--5--5--5--5--

Chorus
E|-----10-10-9--9--5--5--5--5-----------------------------------------
B|-----10-10-10-10-7--7--7--7---7b8b7-7\5--5--3--5--7--10-10-10-10-10-
G|-----11-11-11-11-7--7--7--7---0-----0----0--0--0--0--0--0--0--0--0--
D|--0---0-0--0--0--0--0--0--0-----------------------------------------

E|--------------------------------------
B|--10-10-10-10-8--8--8--8--8--8--8--8--
G|--9--9--9--9--7--7--7--7--7--7--7--7--
D|--7--7--7--7--5--5--5--5--5--5--5--5--

Verse 2
E|--0--0--0--0--0--------------------------------------------------------------
B|--2--2--2--2--3--3--3--3--3--3--3--3---7b8b7-7\5--5--3--5--7--10-10-10-10-10-
G|--2--2--2--2--2--2--2--2--2--2--2--2---0-----0----0--0--0--0--0--0--0--0--0--
D|--0--0--0--0--0--0--0--0--0--0--0--0-----------------------------------------

Pre-chorus
E|-----------------------------------------
B|--5--5--5--5--5--8--8--8--8--8--8--8--8--
G|--4--4--4--4--4--7--7--7--7--7--7--7--7--
D|--2--2--2--2--2--5--5--5--5--5--5--5--5--

Chorus 2
E|-----10-10-9--9--5--5--5--5--------------------------------------
B|-----10-10-10-10-5--5--5--5---7b8b7-7\5--5--3--0--3--7-7/10-7----
G|-----11-11-9--9--6--6--6--6---0-----0----0--0--0--0--0-0----0----
D|--0--0--0--0--0--0--0--0--0--------------------------------------

E|-----10-10-9--9--5--5--5--5----------------------------------------
B|-----10-10-10-10-5--5--5--5---7b8b7-7\5-5-3--10--12--15--12-10-12--
G|-----11-11-9--9--6--6--6--6---0-----0---0-0---0---0---0---0--0--0--
D|--0--0--0--0--0--0--0--0--0----------------------------------------

E|-----10-10-9--9--5--5--5--5---------5\3-3-2--3--5--10-10h12-10--
B|-----10-10-10-10-5--5--5--5---7b8b7-7\5-5-3--5--7--10-10h12-10--
G|-----11-11-9--9--6--6--6--6---0-----0-0-0-0--0--0---0--0--0--0--
D|--0--0--0--0--0--0--0--0--0-------------------------------------

Bridge
E|--------------------------5--5--5--5--5--5--5--5--
B|--5--5--5--5--5--5--5--5--5--5--5--5--5--5--5--5--
G|--4--4--4--4--4--4--4--4--6--6--6--6--7--7--7--7--
D|--2--2--2--2--2--2--2--2--4--4--4--4--7--7--7--7--

E|----------------------
B|--5--5--5--5---2h3p2--
G|--4--4--4--4---2h-----
D|--2--2--2--2---0h-----

Outro Verse x2
E|--0--0--0--0--0--------------------------------------------------------------
B|--2--2--2--2--3--3--3--3--3--3--3--3---7b8b7-7\5--5--3--5--7--10-10-10-10-10-
G|--2--2--2--2--2--2--2--2--2--2--2--2---0-----0----0--0--0--0--0--0--0--0--0--
D|--0--0--0--0--0--0--0--0--0--0--0--0-----------------------------------------

And wrapping up
E|--------------------------------------------------------------------------------------
B|--2--2--2--2--2--2--2--3--3--3--3--3--3--3--3---7b8b7-7\5--5--3--5--7--10-10-10-10-10-
G|--2--2--2--2--2--2--2--2--2--2--2--2--2--2--2---0-----0----0--0--0--0--0--0--0--0--0--
D|--------------------------0--0--0--0--0--0--0-----------------------------------------

E|--5--5--5--5--5----
B|--5--5--5--5--5----
G|--4--4--4--4--7----
D|--2--2--2--2--5----
tabs and chords, guitar tabs, music transcription, music technology, deep learning, music information retrieval, transcribe into tabs & chords, chordify, music renditions, songsterr, reverbnation, tabulature, bollywood chords, ultimate guitar, yousician, guitar lessons, acoustic guitar, electric guitar, guitar tuner, 911 tabs