Guitar Tabs for 1

E|-----------------------------------
B|-----------------------------------
G|--------0--2--5--2--2--3--2-----5--
D|--3--3-----------------------3-----
A|-----------------------------------
E|-----------------------------------

E|--------------------------------------------------------------------
B|--------------------------------------------------------------------
G|--------0--2--5--2--3--2--0-----7--------0--2--5--2--3--2--0--------
D|--3--3-----------------------3-----3--3-----------------------3--3--
A|--------------------------------------------------------------------
E|--------------------------------------------------------------------
tabs and chords, guitar tabs, music transcription, music technology, deep learning, music information retrieval, transcribe into tabs & chords, chordify, music renditions, songsterr, reverbnation, tabulature, bollywood chords, ultimate guitar, yousician, guitar lessons, acoustic guitar, electric guitar, guitar tuner, 911 tabs