Guitar Tabs for ??? ???????

e|------------------------------------------------|
B|--9~--9~--9s10s9--9-------------9---------------|
G|---------------------10--9--10------10--9~--9~--|
D|------------------------------------------------|
A|------------------------------------------------|
E|------------------------------------------------| x4

e|----------------------------------------------------------------------------------------------|
B|--9h10--9--10~--10~--10s12--12--12--10--10--10--9--9--9--9s10s9--9-------------9--------------|
G|--------------------------------------------------------------------10--9--10-----10--9~--9~--|
D|----------------------------------------------------------------------------------------------|
A|----------------------------------------------------------------------------------------------|
E|----------------------------------------------------------------------------------------------|

e|-----------------------------------------------|
B|--9~--9~--9s10s9--9-------------9--------------|
G|---------------------10--9--10------10--9~--9~-|
D|-----------------------------------------------|
A|-----------------------------------------------|
E|-----------------------------------------------| x4

e|------------------------------------10--10--10----------------------------------------------------|
B|--9h10--9--10~--10~--10s12--12--12--------------12--12--12---9s10s9--9-------------9--------------|
G|------------------------------------------------------------------------10--9--10-----10--9~--9~--|
D|--------------------------------------------------------------------------------------------------|
A|--------------------------------------------------------------------------------------------------|
E|--------------------------------------------------------------------------------------------------|

e|-------------------------------------------------------------------------------------------------|
B|--9~--9~--9s10s9--9-------------9-----------------9~-9~--9s10s9--9-------------------------------|
G|---------------------10--9--10------10--9------9--------------------10--9--------------9--10--9--|
D|-------------------------------------------10-------------------------------10--9--10------------|
A|-------------------------------------------------------------------------------------------------|
E|-------------------------------------------------------------------------------------------------| 

e|------------------------------------------------|
B|--9~--9~--9s10s9--9-------------9---------------|
G|---------------------10--9--10------10--9~--9~--|
D|------------------------------------------------|
A|------------------------------------------------|
E|------------------------------------------------| x2

e|------------------------------------------------|
B|--9h10--9---------------------------------------|
G|------------10--9--10--9-------------9--10--9~--|
D|--------------------------10--9--10-------------|
A|------------------------------------------------|
E|------------------------------------------------|
tabs and chords, guitar tabs, music transcription, music technology, deep learning, music information retrieval, transcribe into tabs & chords, chordify, music renditions, songsterr, reverbnation, tabulature, bollywood chords, ultimate guitar, yousician, guitar lessons, acoustic guitar, electric guitar, guitar tuner, 911 tabs