Guitar Tabs for Zara Zara Mehekta Hai

(/) Slide Up  (\) Slide Down  (h) Hammer On  (p) Pull Off  (b) Bend (r) Release (v) Vibrato (x) Muted

Tabs for Song : 

INTRO MUSIC
E|--5--5--5--5--3--3--------------3-----------------------3-----5--5--5--5--3--3--------------3-----------
B|--------------------6--5--5--6-----6--5--3-----3--5--6--------------------------6--5--5--6-----6--5--3--
G|--------------------------------------------------------------------------------------------------------
D|--------------------------------------------------------------------------------------------------------
A|--------------------------------------------------------------------------------------------------------
E|--------------------------------------------------------------------------------------------------------

E|--------------3--5--5--6--8--10-8--6--5-----5--3--3--5--6-----3--------
B|--3--6--6--6-----------------------------------------------------6--5--
G|-----------------------------------------------------------------------
D|-----------------------------------------------------------------------
A|-----------------------------------------------------------------------
E|-----------------------------------------------------------------------

    Zara zara   behekta hai          Mehekta hai
E|-----------------------------------------------------
B|--5--6--5--6--5--5--6--8--5--6-----5--5--6--8--5--6--
G|-----------------------------------------------------
D|-----------------------------------------------------
A|-----------------------------------------------------
E|-----------------------------------------------------

    Aaj   toh   mera     Tan badan   main pyasi hoon      Mujhe bhar le
E|--------5-----------------------------------------------------------------
B|--5--6-----6--5--5-----6--5--6-----5--5--6--8--5--6-----5--5--6--8--5--6--
G|--------------------------------------------------------------------------
D|--------------------------------------------------------------------------
A|--------------------------------------------------------------------------
E|--------------------------------------------------------------------------

    Apni  bahon  mein          Haan teri kasamv  mujhko sanam      door kahin    naa ja
E|-----------------------------------------------------------------------------------------
B|-----6--5-----5-----------------6--5--------------5-----------------------------5--------
G|--7--------7-----5-----7-----7--------5--------5-----7--3--------3--5--3--2--------7-----
D|-----------------------------------------------------------------------------------------
A|-----------------------------------------------------------------------------------------
E|-----------------------------------------------------------------------------------------
    yeh     doori     kehti hai      paas mere aajare  
E|--------------------------------------------------------
B|--------6--5-----------5-----------------------5--------
G|--7--7--------5-----5-----7--3-----3--5--3--2-----7-----
D|--------------------------------------------------------
A|--------------------------------------------------------
E|--------------------------------------------------------

    yun hi   baras    baras    kali     ghata    barse
E|-----------3--5-----3--5-----3--5-----3--5-----------
B|--3--6-----------------------------------------6--5--
G|-----------------------------------------------------
D|-----------------------------------------------------
A|-----------------------------------------------------
E|-----------------------------------------------------

    hum yaar bheeg jaayein      is   chhahat    ki    baarish      mein
E|--3--3--5--------------------------------------------------6--6---3h5--
B|-----------6--6--5--6--3------3/6--8--8--8--8--5-----5--8--------------
G|-----------------------------------------------------------------------
D|-----------------------------------------------------------------------
A|-----------------------------------------------------------------------
E|-----------------------------------------------------------------------
    sardi   ki     raaton   me    hum soye rahein ek chaadar main
E|--5--10-10----------12-12----------13----13-12----12-10-------10----
B|-----------10----10-------10----10----------------------13-13-------
G|--------------------------------------------------------------------
D|--------------------------------------------------------------------
A|--------------------------------------------------------------------
E|--------------------------------------------------------------------
    tere     bina     mushkil   hai     jeena mera mere dilbar 
E|-----10-10-------------8--8-----------------------------------------
B|--10-------10-10----10-------8--8-----8--10-11-11-10-8--6--5--6--5--
G|--------------------------------------------------------------------
D|--------------------------------------------------------------------
A|--------------------------------------------------------------------
E|--------------------------------------------------------------------

rest continues

Paste any tab in acousterr's tab maker and we'll play it !!!
Now supports capo and sound effects for vibrato/pull-off/hammer/bends/mutes etc !!! Checkout help section
tabs and chords, guitar tabs, music transcription, music technology, deep learning, music information retrieval, transcribe into tabs & chords, chordify, music renditions, songsterr, reverbnation, tabulature, bollywood chords, ultimate guitar, yousician, guitar lessons, acoustic guitar, electric guitar, guitar tuner, 911 tabs