Guitar Tabs for Tu meri

Tabs for Song : Tu meri

Aisi kya, chali hawa, ki le gayi
E|-----------------------------
B|-----1--------------1--------
G|--------1--------------1-----
D|--1-----------1--1-----------
A|-----------------------------
E|-----------------------------

Meri saanson ko mujhse door, 
E|-----------------------------------------------
B|--------1--------------1-----------------------
G|-----------3--1--3--3-----3--1--0--1--0--------
D|--1--1-----------------------------------3-----
A|-----------------------------------------------
E|-----------------------------------------------

Tere paas.
E|--------------
B|--------------
G|-----1--------
D|--3-----1-----
A|--------------
E|--------------

Aur mujhe huaa ehsaas
E|--------------------------------
B|--------1--------1-----1--------
G|-----------3--3-----3-----3-----
D|--1--1--------------------------
A|--------------------------------
E|--------------------------------

Tu Tu Tu, Tu Meri ri ri
E|--1-----1-----1--1--4--------------------
B|-----------------------4-----4-----4-----
G|-----------------------------------------
D|-----------------------------------------
A|-----------------------------------------
E|-----------------------------------------

Main tera ra, hone laga
E|--1--4-----------------------
B|--------4--4--1--------------
G|-----------------3--1--3-----
D|-----------------------------
A|-----------------------------
E|-----------------------------

Main main main, main tera ra ra
E|--1-----1-----1--1--4--------------------
B|-----------------------4-----4-----4-----
G|-----------------------------------------
D|-----------------------------------------
A|-----------------------------------------
E|-----------------------------------------

Tu Meri ri, hone lagi..
E|--1--4-----------------------
B|--------4--4--1--------------
G|-----------------3--1--3-----
D|-----------------------------
A|-----------------------------
E|-----------------------------

Kaise yeh huaa magar
E|-----------------------------
B|-----1--------------1--------
G|--------1--------------1-----
D|--1-----------1--1-----------
A|-----------------------------
E|-----------------------------

Na hai mujhe, na tujhko koi khabar
E|-----------------------------------------------
B|--------1--------------1-----------------------
G|-----------3--1--3--3-----3--1--0--1--0--------
D|--1--1-----------------------------------3-----
A|-----------------------------------------------
E|-----------------------------------------------

Par ye dil 
E|--------------
B|--------------
G|-----1--------
D|--3-----1-----
A|--------------
E|--------------

ab se hai kehne laga
E|--------------------------------
B|--------1--------1-----1--------
G|-----------3--3-----3-----3-----
D|--1--1--------------------------
A|--------------------------------
E|--------------------------------

Tu Tu Tu, Tu Meri ri ri
E|--1-----1-----1--1--4--------------------
B|-----------------------4-----4-----4-----
G|-----------------------------------------
D|-----------------------------------------
A|-----------------------------------------
E|-----------------------------------------

Main tera ra, hone laga
E|--1--4-----------------------
B|--------4--4--1--------------
G|-----------------3--1--3-----
D|-----------------------------
A|-----------------------------
E|-----------------------------

Main main main, main tera ra ra
E|--1-----1-----1--1--4--------------------
B|-----------------------4-----4-----4-----
G|-----------------------------------------
D|-----------------------------------------
A|-----------------------------------------
E|-----------------------------------------

Tu Meri ri, hone lagi..
E|--1--4-----------------------
B|--------4--4--1--------------
G|-----------------3--1--3-----
D|-----------------------------
A|-----------------------------
E|-----------------------------

Na jaanu main, na jaane tu
E|-----1-----------------------
B|--------4--4--1--1-----------
G|--1-----------------3--3-----
D|-----------------------------
A|-----------------------------
E|-----------------------------

Huaa ye jaadu kaise
E|-----1--------------------
B|--------4--4--------1-----
G|--1-----------1--3--------
D|--------------------------
A|--------------------------
E|--------------------------

Jo mera tha woh kho gaya
E|-----1-----------------------
B|--------4--4--1--1-----------
G|--1-----------------3--3-----
D|-----------------------------
A|-----------------------------
E|-----------------------------

Jo tera mill gaya ho jaise
E|--------------------------------
B|--------1--4--1-----------------
G|--1--3-----------3--1-----------
D|-----------------------3--3-----
A|--------------------------------
E|--------------------------------

Iss dil ne, jab jaana ki bas tu..
E|--------------------------------------------
B|--------------------------------------------
G|-----1--1-----------------1--1--3--1--3-----
D|--3--------1-----1--1--3--------------------
A|--------------------------------------------
E|--------------------------------------------
tabs and chords, guitar tabs, music transcription, music technology, deep learning, music information retrieval, transcribe into tabs & chords, chordify, music renditions, songsterr, reverbnation, tabulature, bollywood chords, ultimate guitar, yousician, guitar lessons, acoustic guitar, electric guitar, guitar tuner, 911 tabs