Guitar Tabs for Zara Sa

(Intro)
E|-----------------------------------------------------
B|-----------7--10----7--10-7--10-10/12----10-7--------
G|--7-----9--------------------------------------9-----
D|-----------------------------------------------------
A|-----------------------------------------------------
E|-----------------------------------------------------

E|-----------------------------------------------------
B|--------------7--10----7--10-7--10-10/12-------10----
G|--7--7-----9-----------------------------------------
D|-----------------------------------------------------
A|-----------------------------------------------------
E|-----------------------------------------------------

E|-----------------------------------------9--10-9-----------
B|-----------7--10----7--10-7--10-10/12----------------10----
G|--7-----9--------------------------------------------------
D|-----------------------------------------------------------
A|-----------------------------------------------------------
E|-----------------------------------------------------------

E|--------------------------------------------
B|--------------7--10----7--10-7--10-10/12----
G|--7--7-----9--------------------------------
D|--------------------------------------------
A|--------------------------------------------
E|--------------------------------------------





zara si deil me de jagah tu
zara sa apna le bana
E|-----------------------------------------------------------------------
B|--3--3--3--3--2-----------------------3--2--3---3/5---5\3--3--2--------
G|-----------------4--2---2h-4p2-----------------------------------4-----
D|--------------------------------5--------------------------------------
A|-----------------------------------------------------------------------
E|-----------------------------------------------------------------------


zara sa khawbo me saja tu
zara sa yaadon me basa
E|-----------------------------------------------------------------------
B|--3--3--3--3--2-----------------------3--2--3---3/5---5\3--3--2--------
G|-----------------4--2---2h-4p2-----------------------------------4-----
D|--------------------------------5--------------------------------------
A|-----------------------------------------------------------------------
E|-----------------------------------------------------------------------


me chahun tujhko meri jaan bepanaah
E|-----------------------------------------------------
B|--3--2--------------------3---3/5---5\3--3--2--------
G|--------4---2h-4p2-----------------------------4-----
D|--------------------5--------------------------------
A|-----------------------------------------------------
E|-----------------------------------------------------

fida hun tujhpe meri jaan bepanaah
E|--------------------------------------------------------
B|--3--2--------------------3---3/5---5\3--3-----2--------
G|--------4---2h-4p2--------------------------------4-----
D|--------------------5-----------------------------------
A|--------------------------------------------------------
E|--------------------------------------------------------


ohh ohhh
E|--2--5-----------2--------------------------2--------
B|--------3-----5-----5-----3--2---2h3-----5-----5-----
G|-----------------------------------------------------
D|-----------------------------------------------------
A|-----------------------------------------------------
E|-----------------------------------------------------

E|--2--5-----------2-----------------------------------
B|--------3-----5-----5-----3--2---2h3---2h-3p2--------
G|-----------------------------------------------2-----
D|-----------------------------------------------------
A|-----------------------------------------------------
E|-----------------------------------------------------

E|--2--5-----------2-----------------------2--------
B|--------3-----5-----5-----3--2---2h3--5-----5-----
G|--------------------------------------------------
D|--------------------------------------------------
A|--------------------------------------------------
E|--------------------------------------------------

E|--2--5-----------2--------------------
B|--------3-----5-----5-----3--2---2h3--
G|--------------------------------------
D|--------------------------------------
A|--------------------------------------
E|--------------------------------------

me tere me tere kadmo....
E|-----------2--------2--2--2--5--5--------2--------
B|-----3--5-----3--5-----------------5--5-----5-----
G|--------------------------------------------------
D|--------------------------------------------------
A|--------------------------------------------------
E|--------------------------------------------------

mera ishq deewanigi...
E|-----------------------2--------------------------2--------
B|--3--2---2h3--3--3--3-----5-----3--2---2h3-----3-----5-----
G|-----------------------------------------------------------
D|-----------------------------------------------------------
A|-----------------------------------------------------------
E|-----------------------------------------------------------


hai nahi hai nahi...
E|--------2--------2--2--2--5--5--------2--------
B|--3--5-----3--5-----------------5--5-----5-----
G|-----------------------------------------------
D|-----------------------------------------------
A|-----------------------------------------------
E|-----------------------------------------------

karle tu mera...
E|-----------------------2--------------------------2--------
B|--3--2---2h3--3--3--3-----5-----3--2---2h3-----3-----5-----
G|-----------------------------------------------------------
D|-----------------------------------------------------------
A|-----------------------------------------------------------
E|-----------------------------------------------------------

me chahun tujhko meri jaan bepanaah
E|-----------------------------------------------------
B|--3--2--------------------3---3/5---5\3--3--2--------
G|--------4---2h-4p2-----------------------------4-----
D|--------------------5--------------------------------
A|-----------------------------------------------------
E|-----------------------------------------------------

fida hun tujhpe meri jaan bepanaah
E|-----------------------------------------------------
B|--3--2--------------------3---3/5---5\3--3--2--------
G|--------4---2h-4p2-----------------------------4-----
D|--------------------5--------------------------------
A|-----------------------------------------------------
E|-----------------------------------------------------













tabs and chords, guitar tabs, music transcription, music technology, deep learning, music information retrieval, transcribe into tabs & chords, chordify, music renditions, songsterr, reverbnation, tabulature, bollywood chords, ultimate guitar, yousician, guitar lessons, acoustic guitar, electric guitar, guitar tuner, 911 tabs