Guitar Tabs for Your Mine

(/) Slide Up  (\) Slide Down  (h) Hammer On  (p) Pull Off  (b) Bend (r) Release (v) Vibrato (x) Muted




E|-----------------------------------------------------------
B|---1h3--3--3------1h3--3--3------1h3--3--3-----3--1--------
G|-----------------------------------------------------2-----
D|--------------------------------------------------------3--
A|-----------------------------------------------------------
E|-----------------------------------------------------------


E|--------------------------------------------------------------------------------------------------------------------------------------------
B|--------------------------------------------------------------------------------------------------------------------------------------------
G|-----------0-----------------------0--------0--2--0-----------------------------0-----------------------0-----0--2--0-----------------------
D|--------3-----3--0--------0--2--3--------------------------------0--2--3-----3-----3--0--------0--2--3-----------------------------0--2--3--
A|-----------------------------------------------------3--------3--------------------------------------------------------3--------3-----------
E|--------------------------------------------------------------------------------------------------------------------------------------------

E|--------------------------------------------------------------------------------
B|--------------------------------------------------------------------------------
G|-----0--2---2h3--3--3--3--2--0--------------------------------------------------
D|--3--------------------------------3-----3--3--1-----1--1--0-----0--0-----------
A|-----------------------------------------------------------------------3--3--3--
E|--------------------------------------------------------------------------------

E|-----------------------------------------------------------------------------------------------------------
B|-----------------------------------------------------------------------------------------------------------
G|-----------------------------------------------------------------------------------------------------------
D|--------0--0--3---3h5--3--0--------------0-----0--3------3h5--3--0-----------------------------------------
A|--1--1--------------------------1-----1-----------------------------------------0-----0--3------3h5--3--0--
E|-----------------------------------------------------------------------1-----1-----------------------------

E|--------------------------------------------------------------------------------------------------------------------
B|--------------------------------------------------------------------------------------------------------------------
G|--------------------------------------------------------------------------------------------------------------------
D|--3--3--3--1--1--1--0--0--0--------------------0-----0--3------3h5--3--0--------------0-----0--3------3h5--3--0-----
A|-----------------------------3--3--3--1-----1--------------------------------1-----1--------------------------------
E|--------------------------------------------------------------------------------------------------------------------

E|--------------------------------------------------------------------------------
B|--------------------------------------------------------------------------------
G|--------------------------------------------------------------------------------
D|--------------------0--0--0---0h2--0--------------------------------------------
A|-----------2--2--2--------------------2-----3--3--3--1--1--1--0--0--0-----------
E|--3--3--3--------------------------------------------------------------3--3--3--

E|-----------------------------------------------------------------------------------------------------------------------------------------
B|-----------------------------------------------------------------------------------------------------------------------------------------
G|-----------0-----------------------0--------0--2--0--------------------------0-----------------------0-----0--2--0-----------------------
D|--3-----3-----3--0--------0--2--3-----------------------------0--2--3-----3-----3--0--------0--2--3-----------------------------0--2--3--
A|-----------------------------------------------------3-----3--------------------------------------------------------3--------3-----------
E|----------------------------------------------------------------------------------------------------------------------------------------

E|--------------------------------------
B|--------------------------------------
G|-----0--2---2h3--3--3--3--2--0--------
D|--3--------------------------------3--
A|--------------------------------------
E|--------------------------------------


Use manual mode to free up cursor. Paste any tab in acousterr tab maker and we'll play it !!!
tabs and chords, guitar tabs, music transcription, music technology, deep learning, music information retrieval, transcribe into tabs & chords, chordify, music renditions, songsterr, reverbnation, tabulature, bollywood chords, ultimate guitar, yousician, guitar lessons, acoustic guitar, electric guitar, guitar tuner, 911 tabs