Guitar Tabs for Mine

(/) Slide Up  (\) Slide Down  (h) Hammer On  (p) Pull Off  (b) Bend (r) Release (v) Vibrato (x) Muted

Tabs & Chords
BPM : 72.0
Check Track 2 for Chord Positions 

                      F#m                              A        F#       F#m                  
E|--19-3--5--19-------0--0--------------------------7--8--5--5-----21----0--0--0--------------
B|--------------------3-----------------------------18-------------4-----3--------------------
G|--------------------8-----------------------------------------------------------------------
D|--------------6-----------------4-----4-----------------3-----6-----------------2--------4--
A|--------------------------------------------0-----------------------------------2-----------
E|-----0--------------------2--------2--------------------------------------------------4-----

                                     
E|-----------------7--9--9--5--15----
B|-----------------------------------
G|-----------------------------------
D|-----------------------------------
A|-----------------------------------
E|--4--4--4-----4-----------------4--

Guitar Tabs for Mine






                      F#m                              A        F#       F#m                  
E|--------------------2--------------------------------0--------2--------2--------------------
B|--------------------2--------------------------------2--------2--------2--------------------
G|--------------------2--------------------------------2--------3--------2--------------------
D|--------------------4--------------------------------2--------4--------4--------------------
A|--------------------4--------------------------------0--------4--------4--------------------
E|--------------------2-----------------------------------------2--------2--------------------

                                     
E|-----------------------------------
B|-----------------------------------
G|-----------------------------------
D|-----------------------------------
A|-----------------------------------
E|-----------------------------------

tabs and chords, guitar tabs, music transcription, music technology, deep learning, music information retrieval, transcribe into tabs & chords, chordify, music renditions, songsterr, reverbnation, tabulature, bollywood chords, ultimate guitar, yousician, guitar lessons, acoustic guitar, electric guitar, guitar tuner, 911 tabs