Guitar Tabs for You Know Youre Shit

(/) Slide Up  (\) Slide Down  (h) Hammer On  (p) Pull Off  (b) Bend (r) Release (v) Vibrato (x) Muted

Tabs for Song : 

Song lyrics here
E|--x--x--x--x-----------------------------------------------
B|--x--x--x--x-----------------------------------------------
G|--x--x--x--x-----------------------------------------------
D|--x--x--x--x-----------------------------------------------
A|--x--x--x--x-----------------------------2--2--0-----------
E|--x--x--x--x--------4--4--0-----2--2-----------------2--2--

Song lyrics here
E|-----------------------------------------------------------
B|-----------------------------------------------------------
G|-----------------------------------------------------------
D|-----------------------------------------------------------
A|-----------------------2--2--0-----------------------------
E|--4--4--0-----2--2-----------------2--2--------------------

E|-----------------------------------------
B|-----------------------------------------
G|-----------------------------------------
D|-----------------------4--4--0-----------
A|--6--6--0-----4--4-----2--2--0-----4--4--
E|--4--4--0-----2--2-----------------2--2--

E|-----------------------------------------
B|-----------------------------------------
G|-----------------------------------------
D|--------------3--3-----6--6--0-----------
A|--3--3--0-----1--1-----4--4--0-----6--6--
E|--1--1--0--------------------------4--4--

Paste any tab in acousterr's tab maker and we'll play it !!!
Now supports capo and sound effects for vibrato/pull-off/hammer/bends/mutes etc !!! Checkout help section
tabs and chords, guitar tabs, music transcription, music technology, deep learning, music information retrieval, transcribe into tabs & chords, chordify, music renditions, songsterr, reverbnation, tabulature, bollywood chords, ultimate guitar, yousician, guitar lessons, acoustic guitar, electric guitar, guitar tuner, 911 tabs