Guitar Tabs for Shit

35
66E|---------------------
B|-----------------------
G|--------------------11-
D|--12-12-16-10----------
A|--------------2--2-----
E|-----------------------

E|--
B|--
G|--
D|--
A|--
E|--

E|-----------------------332234243262892623526273255376334565--------
B|-----------------------------
G|-----------------------------
D|--3--3--------0--1--3--------
A|--------4--4-----------------
E|-----------------------8--9--

53E|---5------------------------------------------------253------------35555355335-----
B|-----------------------3--------------------------------------------
G|--------------11----------1-----4-----------------------7--7--------
D|-----------1-----------------------6--7--7--3--3--6--6--------2-----
A|--------------------------------------------------------------------
E|--3--3--2--------7--7--------14----------------------------------3--


Song lyrics here 
E|--5656543ef5efwwwfe
B|--
G|--
D|--
A|--
E|--

Song lyrics 5
B|--
G|--
D|--
A|--
E|--
5
tabs and chords, guitar tabs, music transcription, music technology, deep learning, music information retrieval, transcribe into tabs & chords, chordify, music renditions, songsterr, reverbnation, tabulature, bollywood chords, ultimate guitar, yousician, guitar lessons, acoustic guitar, electric guitar, guitar tuner, 911 tabs