You Just Haven't Earn It Yet Baby - Guitar Tabs

(/) Slide Up  (\) Slide Down  (h) Hammer On  (p) Pull Off  (b) Bend (r) Release (v) Vibrato (x) Muted

Tabs for Song : You just havenĀ“t earn it yet baby by The Smiths
BPM : 250
capo at 2nd fret

E|-----------------0----------|--------------------------|0--0--0--0--0--0--0--0-|0--0--0--0--0-----0----|
B|-----------4-----------4----|---------7-----7--5-------|0--0--0--0--0--0--0--0-|0--0--0--0--0-----2----|
G|-----6--------------------6-|------6--------------0----|1--1--1--1--1--1--1--1-|1--1--1--1--1-----2----|
D|--6-----6-----6-------------|---7----------------------|2--2--2--2--2--2--2--2-|2--2--2--2--2-----2----|
A|----------------------------|0-------------------------|2--2--2--2--2--2--2--2-|2--2--2--2--2-----0----|
E|----------------------------|--------------------------|0--0--0--0--0--0--0--0-|0--0--0--0--0----------|

6 times but at the last will stop in d4
E|--------0--0--0--0--------0-|
B|---0h---0--0--0--0--------0-|
G|---2h4--4--4--4--2--------2-|
D|-----------------------4----|
A|----------------------------|
E|----------------------------|

E|----------------------------|--------------------------|
B|----------------------------|---2---------3p2-----2----|
G|-----1---------2p1-----1----|------2-----------2-----2-|
D|--------2-----------2-----2-|---------2----------------|
A|-----------2----------------|0-------------------------|
E|--0-------------------------|--------------------------|

Play 2nd section

E|----------------------------|0-----------2----------|
B|----------------------------|1-----------3----------|
G|-----1---------2p1-----1----|0-----------2----------|
D|--------2-----------2-----2-|2-----------0----------|
A|-----------2----------------|3----------------------|
E|--0-------------------------|-----------------------|

nice part
reapeat 3 times but at 3th time play 2 first parts and end with 2 latest parts of first section(intro)
E|--------------0----------|--------------------------|4-----------5-----4----|2--------2-----0-------|
B|--4-----------------4----|---------7-----7--6-------|------5----------------|------4-----------4----|
G|--------6----------------|------6--------6--7-------|-----------------------|---4-------------------|
D|-------------------------|---7----------------------|-----------------------|-----------------------|
A|-------------------------|0-------------------------|-----------------------|-----------------------|
E|-------------------------|--------------------------|-----------------------|-----------------------|

play 2 times
E|--------5--------3----------|--------------------------|
B|-----------5--------3-----0-|--------------------------|
G|---5/6--------4--------4----|------0-----------0-----0-|
D|----------------------------|---2-----------4----------|
A|----------------------------|3---------3/5--------5----|
E|----------------------------|--------------------------|

E|-------------------------|-----------------------|
B|-------------------------|-----------------------|
G|--4--4--4--4--4--4--4--4-|4--4--4--4--4-----5----|
D|--4--4--4--4--4--4--4--4-|4--4--4--4--4-----5----|
A|--2--2--2--2--2--2--2--2-|2--2--2--2--2-----3----|
E|-------------------------|-----------------------|

Use manual mode to free up cursor. Paste any tab in acousterr tab maker and we'll play it !!!

About Shoplifters of the World Unite : Released in January 1987, it reached No. 12 in the UK Singles Chart . As with most of the Smiths' singles, it was not included on a studio album . It is featured on the compilation albums The World Won't Listen, Louder Than Bombs, Singles and The Sound of The Another song, "You Just Haven't Earned It Yet, Baby", was originally intended to be the A-side of this single . Approximately 900 stock copies of the single were manufactured . This aborted single mix can be heard on The World Won't Listen . The title alludes to the slogan "Workers of the world, unite!" and the 1966 David It was released in 1987. It was released as part of album Louder Than Bombs and The World Won't Listen. The genre is alternative rock. The track was release in 1987. The track has an affiliation to the band(s) - the Smiths.

About The Smiths : Morrissey, Johnny Marr, Andy Rourke and drummer Mike Joyce formed in Manchester in 1982 . Internal tensions led to their break up in 1987 and subsequent offers to reunite have refused . Morrissey's complex, literate lyrics combined themes of ordinary lives with mordant humour . The Smiths' focus on a guitar, bass, and drum sound, and fusion of 1960s rock and post-punk . Several Smiths singles reached the top 20 of the UK Singles Chart . The Smiths achieved mainstream success in Europe with The Queen Is Dead (1986) and Strangeways, Here We Come . The Smiths The group has many notable artists like Johnny Marr,Andy Rourke,Mike Joyce. Their music is influenced by genres - indie rock jangle pop post-punk alternative rock.

tabs and chords, guitar tabs, music transcription, music technology, deep learning, music information retrieval, transcribe into tabs & chords, chordify, music renditions, songsterr, reverbnation, tabulature, bollywood chords, ultimate guitar, yousician, guitar lessons, acoustic guitar, electric guitar, guitar tuner, 911 tabs