Guitar Tabs for Just Give It Time

(/) Slide Up  (\) Slide Down  (h) Hammer On  (p) Pull Off  (b) Bend (r) Release (v) Vibrato (x) Muted

Tabs for Song : 
BPM : 200

Intro
E|-----------0-|--------------|--------------|------------0-|--------------|0-------------|
B|-----------0-|------------5-|------------3-|------------0-|------------5-|2-------------|
G|--------2--2-|---------4--4-|---------2--2-|---------2--2-|---------4--4-|2-------------|
D|-----2-------|------6-----6-|------4-----4-|------2-------|------6-----6-|0-------------|
A|-------------|---4----------|---2----------|--------------|---4----------|2-------------|
E|--2----------|--------------|--------------|---2----------|--------------|0-------------|

Verse x2
"Burning Bridges, Separate"
E|-----------0-|-----------|------------
B|-----------0-|---------5-|---------3--
G|--------2--2-|------4--4-|------2--2--
D|-----2-------|---6-----6-|---4-----4--
A|-------------|4----------|2-----------
E|--2----------|-----------|------------

"Before, brought us together"
E|-----------0-|-----------|0--
B|-----------0-|---------5-|2--
G|--------2--2-|------4--4-|2--
D|-----2-------|---6-----6-|0--
A|-------------|4----------|2--
E|--2----------|-----------|---

"Friends are pretty cool"
E|-----------9-|-----------|------------
B|-----------10|---------5-|---------3--
G|--------9--9-|------4--4-|------2--2--
D|-----12------|---6-----6-|---4-----4--
A|--9----------|4----------|2-----------
E|-------------|-----------|------------

"Until talks end in anger" 
E|-----------9-|-----------|0--
B|-----------10|---------5-|2--
G|--------9--9-|------4--4-|2--
D|-----12------|---6-----6-|0--
A|--9----------|4----------|2--
E|-------------|-----------|0--

Pre-chorus
"Try and induce the good"

E|-------------|-----------|-----------------|7--
B|-----------10|---------9-|---------9-------|7--
G|--------11-11|------10-10|------9--9-------|8--
D|-----11----11|---11----11|---9-----9-------|9--
A|--9----------|8----------|7-----------7--6-|9--
E|-------------|-----------|-----------------|7--

"Soon will turn into antagonists"-
E|----------------|--------|---|---------
B|--10------------|---10---|---9--------
G|--11------------|---11---|---10-------
D|--11------------|---11---|---11-------
A|----------------|--------|------------
E|--10------------|9-------|---9--------

Chorus x2
"Don't think, don't speak"
E|-------------|-----------|------------
B|--10---------|---9-------|3-----------
G|--11---------|---9-------|2-----------
D|--11---------|---9-------|4-----------
A|-------------|7----------|2-----------
E|--10---------|-----------|------------

"And we'll all just be fine"
E|-------------|-----------|0--
B|--10---------|9----------|0--
G|--11---------|9----------|2--
D|--11---------|9----------|2--
A|-------------|7----------|2--
E|--10---------|-----------|0--

Bridge

E|-------------------------|-----------------------|7--
B|--10----------10---------|10----------10---------|7--
G|--11----------11---------|9-----------9----------|7--
D|-----12-12-12----12-12-12|---11-11-11----11-11-11|9--
A|-------------------------|-----------------------|---
E|-------------------------|-----------------------|---

E|-------------------------|-----------------------|--------------------------|
B|--10----------10---------|10----------10---------|9-------------------------|
G|--11----------11---------|9-----------9----------|9-------------------------|
D|-----12-12-12----12-12-12|---11-11-11----11-11-11|9--------------------4----|
A|-------------------------|-----------------------|7------2/4--2-----------5-|
E|-------------------------|-----------------------|----------------2/4-------|
tabs and chords, guitar tabs, music transcription, music technology, deep learning, music information retrieval, transcribe into tabs & chords, chordify, music renditions, songsterr, reverbnation, tabulature, bollywood chords, ultimate guitar, yousician, guitar lessons, acoustic guitar, electric guitar, guitar tuner, 911 tabs