You Are So Beautiful - Joe Cocker - Guitar Tabs

Guitar
    
                                                                                                                                                                                                                                                                                                                                                                                                                                                                                                                                                                                                                                                                                                                                                                                                                                                                                                                                                                                                                                                                                                                                                                                              
E|----------------------------|-----------------------------|
B|--1-----1--------1-----1----|1----------------------------|
G|--------------3-------------|---3--1-----1-----------0--1-|
D|-----1--------------1-------|---------------3--6--3--1----|
A|----------------------------|---------3--------4----------|
E|--4-----------2-------------|1----------------------------|

    
                                                                                                                                                                                                                                                                                                                                                                                                                                                                                                                                                                                                                                                                                                                                                                                                                                                                                                                                                                                                                                                                                                                                                                                              
E|----------------------------|-----------------------------|
B|-----1--1--------1-----1----|1----------------------------|
G|--------------3-------------|---3--1-----1-----1-----0----|
D|--------1--------------1----|---------3-----3--3-----6----|
A|----------------------------|------------------4-----6----|
E|--4-----------2-------------|1----------------------------|

    
                                                                                                                                                                                                                                                                                                                                                                                                                                                                                                                                                                                                                                                                                                                                                                                                                                                                                                                                                                                                                                                                                                                                                                                              
E|-------------------------|---------1-------------|
B|--------1-----1----------|---------1-----------1-|
G|--1-----1-----0-----5----|------1-----------1----|
D|--1-----------------4----|---3-----------3-------|
A|--3----------------------|4----------------------|
E|--4----------------------|-----------------------|

    
                                                                                                                                                                                                                                                                                                                                                                                                                                                                                                                                                                                                                                                                                                                                                                                                                                                                                                                                                                                                                                                                                                                                                                                              
E|-------------------------|-----------------------|
B|-------------------------|------------------1----|
G|--------1-----------1----|------1-----0--1-----1-|
D|-----2-----2--------2----|---1--1--1-------------|
A|-------------------------|-----------------------|
E|--2--------------2-------|4----------------------|

    
                                                                                                                                                                                                                                                                                                                                                                                                                                                                                                                                                                                                                                                                                                                                                                                                                                                                                                                                                                                                                                                                                                                                                                                              
E|-------------------------|--------------------------------|
B|--------1-----------1----|1-----1--------1----------------|
G|-----1-----------1-------|1-----1-----------3--1-----1----|
D|--4--------4-----------4-|3-----3--------3--------3-----3-|
A|-------------------------|------------4-------------------|
E|-------------------------|--------------------------------|

    
                                                                                                                                                                                                                                                                                                                                                                                                                                                                                                                                                                                                                                                                                                                                                                                                                                                                                                                                                                                                                                                                                                                                                                                              
E|----------------------------|---------------4-------|
B|----------------------------|---------------------1-|
G|--1--3--------------1-------|---------1--------1----|
D|--2-----------2-----------2-|------1----------------|
A|----------------------------|---1-------------------|
E|--2--------2----------------|4-----------4----------|

    
                                                                                                                                                                                                                                                                                                                                                                                                                                                                                                                                                                                                                                                                                                                                                                                                                                                                                                                                                                                                                                                                                                                                                                                              
E|--2--------2--4----------|------1-----------1----|
B|--------2----------------|------1-----------1----|
G|-----3--------5-----5----|---------1-----------1-|
D|--------------------6----|---3-----------3-------|
A|-----------------6-----3-|4-----------4----------|
E|-------------------------|-----------------------|

    
                                                                                                                                                                                                                                                                                                                                                                                                                                                                                                                                                                                                                                                                                                                                                                                                                                                                                                                                                                                                                                                                                                                                                                                              
E|-------------------------|4-----------3-----4----|
B|-----1--1-----------1----|------1----------------|
G|-----------------3-------|---1-----1-------------|
D|--3--------3--2--------2-|------------2-----1----|
A|-------------------------|-----------------------|
E|-------------------------|-----------------------|

    
                                                                                                                                                                                                                                                                                                                                                                                                                                                                                                                                                                                                                                                                                                                                                                                                                                                                                                                                                                                                                                                                                                                                                                                              
E|--1-----------------1-------------|--------------------------|
B|-----------1----------------------|---------------1----------|
G|-----0--1-----0--1----------------|---------1-----0--1--5----|
D|-----------------------------0--1-|------1--------------4----|
A|----------------------------------|---1----------------------|
E|----------------------------------|4-------------------------|

    
                                                                                                                                                                                                                                                                                                                                                                                                                                                                                                                                                                                                                                                                                                                                                                                                                                                                                                                                                                                                                                                                                                                                                                                              
E|-------------------------|-----------------------|
B|--------1----------------|------1-----------1----|
G|--------1-----1-----3----|------1-----0--1-----0-|
D|-----3-----3--2-----2----|---1-----1-------------|
A|--4----------------------|-----------------------|
E|--------------2----------|4----------------------|

    
                                                                                                                                                                                                                                                                                                                                                                                                                                                                                                                                                                                                                                                                                                                                                                                                                                                                                                                                                                                                                                                                                                                                                                                              
E|-------------------------|---------1----------------|
B|-------------------------|---------1----------------|
G|--5--------5-----------5-|------1--------------1--1-|
D|-----4--6--------4--6----|---3--------------3-------|
A|-------------------------|4--------------4----------|
E|--4----------------------|--------------------------|

    
                                                                                                                                                                                                                                                                                                                                                                                                                                                                                                                                                                                                                                                                                                                                                                                                                                                                                                                                                                                                                                                                                                                                                                                              
E|-------------------------|-----------------------|
B|-------------------------|------1-----------1----|
G|--3--------1--3-----1--3-|------1-----0--1-------|
D|--2-----2-----------2----|---1-----1-------------|
A|-------------------------|-----------------------|
E|--2--2-------------------|4--------------------4-|

    
                                                                                                                                                                                                                                                                                                                                                                                                                                                                                                                                                                                                                                                                                                                                                                                                                                                                                                                                                                                                                                                                                                                                                                                              
E|----------------------------|---------1-------------------|
B|-----------------------1----|------------1----------------|
G|--5--------1--------------1-|------1-----------------1----|
D|--4-----4-----------4-------|---3--------1--------3-----3-|
A|----------------------------|4-----------------4----------|
E|-----4----------------------|-----------------------------|

    
                                                                                                                                                                                                                                                                                                                                                                                                                                                                                                                                                                                                                                                                                                                                                                                                                                                                                                                                                                                                                                                                                                                                                                                              
E|-------------------------|--------------------------|
B|-------------------------|---1-----1-----1-----1----|
G|--3-----3-----------1----|------1-----------1-----0-|
D|-----2-----------2-----2-|---1--------3-------------|
A|-------------------------|--------------------------|
E|--------------2----------|4-------------------------|

    
                                                                                                                                                                                                                                                                                                                                                                                                                                                                                                                                                                                                                                                                                                                                                                                                                                                                                                                                                                                                                                                                                                                                                                                              
E|-----------------------4----|1----------------------|
B|--------2-----1-----------1-|1--------1--------1----|
G|-----3--------------1-------|------1--------3-----1-|
D|--4--------4-----1----------|---3--------4----------|
A|----------------------------|-----------------------|
E|----------------------------|-----------------------|

    
                                                                                                                                                                                                                                                                                                                                                                                                                                                                                                                                                                                                                                                                                                                                                                                                                                                                                                                                                                                                                                                                                                                                                                                              
E|-----------------------3----|4-----------3----------|
B|--------1-----------1-----1-|------1--------1-------|
G|--0--3-----------3----------|---1-----1-------------|
D|-----------3--2-------------|------------------1----|
A|----------------------------|---------------------3-|
E|----------------------------|-----------------------|

    
                                                                                                                                                                                                                                                                                                                                                                                                                                                                                                                                                                                                                                                                                                                                                                                                                                                                                                                                                                                                                                                                                                                                                                                              
E|-----------0--3-------------|-----------------------|
B|--------1-------------------|-----------------------|
G|-----1--------1--0----------|5--------1--0----------|
D|--0-------------------------|------1-----------4----|
A|-----------------1----------|-----------------------|
E|----------------------------|4----------------------|

    
                                                                                                                                                                                                                                                                                                                                                                                                                                                                                                                                                                                                                                                                                                                                                                                                                                                                                                                                                                                                                                                                                                                                                                                              
E|----------------------------------|--------------------------|
B|--------1-------------------------|------1--------1-----1----|
G|-----1-----1--------1-------------|------1-----3-------------|
D|--3-----------3-----2-----------1-|---1-----1-----------1----|
A|--4-------------------------------|--------------------------|
E|-----------------2----------------|4-----------2-------------|

    
                                                                                                                                                                                                                                                                                                                                                                                                                                                                                                                                                                                                                                                                                                                                                                                                                                                                                                                                                                                                                                                                                                                                                                                              
E|-------------------------------|--------------------------|
B|--1----------------------------|---------1--------1-------|
G|-----3--1-----1-----1-----3----|------3--------3--------3-|
D|-----------3-----3-----2-----2-|---1--------1-----------5-|
A|-------------------------------|---------------------1----|
E|--1-----------------2----------|4--------------------4----|

    
                                                                                                                                                                                                                                                                                                                                                                                                                                                                                                                                                                                                 
E|--4----------------------|
B|-------------------------|
G|-------------------------|
D|-------------------------|
A|-------------------------|
E|-------------------------|

About You Are So Beautiful : Billy Preston and Bruce Fisher wrote the song "You Are So Beautiful" It was also the B-side of his single "Struttin'" Joe Cocker's version was produced by Jim Price, produced by Price . Some sources credit Dennis Wilson of the Beach Boys with contributing to the song's genesis . Kenny Rankin, Ray Stevens, Kenny Rogers, Bonnie Tyler and Brian Kennedy are also among artists who have covered "You Are So Beautiful" The song has also been featured in numerous movies, television shows and ads . Billy Preston wrote "You Are So Beautiful" with one of his regular collaborators, Bruce Fisher . Preston's inspiration was his mother, who worked as an actress . It was released in 1974. It was released as part of album I Can Stand a Little Rain. The genre is pop soul. The track was release in 1974. You Are So Beautiful has a significant contribution from artist(s) Billy Preston,Bruce Fisher,Jim Price. It is related to the album(s) - The Kids & Me.

About Billy Preston - William Everett Preston was a top session keyboardist in the 1960s . He backed artists such as Little Richard, Sam Cooke, Ray Charles and Reverend James Cleveland . Preston's work encompassed R&B, rock, soul, funk and gospel . Preston was one of five musicians credited on a Beatles recording other than the group's four members . He continued to record and perform with other artists, notably George Harrison and Eric Clapton . At 11, Preston appeared on an episode of Nat King Cole's NBC TV show singing the Fats Domino hit "Blueberry Hill" Preston was entirely self-taught and never had a music lesson . Billy Preston had an affiliation to band(s) - Preston. Billy Preston's music is influenced by genre(s) - r&b , rock , soul , funk , gospel.

About Joe Cocker - John Robert "Joe" Cocker OBE (20 May 1944) was an English singer known for his gritty voice, spasmodic body movement in performance Cocker's recording of the Beatles' "With a Little Help from My Friends" reached number one in the UK in 1968 . His version also became the theme song for the TV series The Wonder Years . In 1993 he was nominated for the Brit Award for Best British Male . He received an OBE at Buckingham Palace for services to music . Cocker was ranked number 97 on Rolling Stone's 100 greatest singers list . Joe Cocker's music is influenced by genre(s) - rock , blues , soul , pop.

About I Can Stand a Little Rain : Joe Cocker's fourth studio album, released in September 1974 . The album is considered to be the singer's finest album in that In 1973, Joe Cocker teamed up with Jim Price, a trumpet player turned producer . Price had previously been member of Cocker "Jim rekindled my interest," Cocker said in an interview for "Blank Space" in 1979 . "I Can Stand a Little Rain" turned out to be the title of the album . Its music is influenced by genres - rock.

tabs and chords, guitar tabs, music transcription, music technology, deep learning, music information retrieval, transcribe into tabs & chords, chordify, music renditions, songsterr, reverbnation, tabulature, bollywood chords, ultimate guitar, yousician, guitar lessons, acoustic guitar, electric guitar, guitar tuner, 911 tabs