Guitar Tabs for A Love So Beautiful

E|----------------------------------|------------------------------|------------------------------------0----0--
B|-----1---------1--0--1--3---------|------(3)---1---0-------------|--------------0---1------3---2---3----------
G|----------------------------------|---------------------0--------|----1---2-----------------------------------
D|----------------------------------|------------------------------|--------------------------------------------
A|----------------------------------|------------------------------|-------------------------0------------------
E|-----1----------------------------|-------3----------------------|----0---------------------------------------

E|-----1---0------------------------|-------1----0-----------------|-----------|--------------------------------
B|-------------3-----1----1---------|---------------3------0-------|------1----|---1---------------1---3---1----
G|----------------------------------|------------------------------|-----------|--------------------------------
D|----------------------------------|------------------------------|-----------|--------------------------------
A|----------------------------------|------------------------------|------3----|---3----------------------------
E|-----1----------------------------|-------3----------------------|-----------|--------------------------------

E|-------0--0--0--0--0--------------|------------------------------|---------1---1---1---1---0------------------
B|----3------------------3--3--1----|--0---1---3---1-----1---------|------------------------------3----1--------
G|----------------------------------|----------------------2---0---|----2---------------------------------------
D|----------------------------------|------------------------------|--------------------------------------------
A|----3-----------------------------|--0---------------------------|--------------------------------------------
E|----------------------------------|------------------------------|----1---------------------------------------

E|------------0---------------------|-------3----3------1---0------|------------------------------0-------------
B|----0---1-------3---1---0---------|---0-----------------------3--|----3-----3-----2------3--------------------
G|----------------------------2-----|------------------------------|--------------------------------------------
D|----------------------------------|------------------------------|--------------------------------------------
A|----------------------------------|------------------------------|----0---------------------------------------
E|----3-----------------------------|---0--------------------------|--------------------------------------------

E|----0---1----1---0----------------|------------------------------|--------0---0---0---0-----------------------
B|----------------------3----1------|---0--------------1---3---1---|----3-------------------3---3---1-----------
G|----------------------------------|-------2----0-----------------|--------------------------------------------
D|----0-----------------------------|------------------------------|--------------------------------------------
A|----------------------------------|------------------------------|----3---------------------------------------
E|----------------------------------|---3--------------------------|--------------------------------------------

E|----------------------------------|------1--1--1--1--3-----------|---------------0----------------------------
B|----0---1---3---1-----1-----------|-----------------------3----1-|----0-----1--------3-----------1----0-------
G|--------------------------2----0--|---2--------------------------|-----------------------------------------2--
D|----------------------------------|------------------------------|--------------------------------------------
A|----0-----------------------------|------------------------------|--------------------------------------------
E|----------------------------------|---1--------------------------|----3---------------------------------------

E|---------3----3-------1---0-------|---------------------0---3----|----0-----1----1--------0-------------------
B|----0--------------------------3--|---3---3---2----3-------------|-------------------------------3-----1------
G|----------------------------------|------------------------------|--------------------------------------------
D|----------------------------------|------------------------------|----0---------------------------------------
A|----------------------------------|---0--------------------------|--------------------------------------------
E|----0-----------------------------|------------------------------|--------------------------------------------

E|----5----5------3-----------------|---0----1--0----1--0---1----3-|----(3)-----0----5---------3----------------
B|----------------------------------|------------------------------|--------------------------------------------
G|----------------------------------|------------------------------|--------------------------------------------
D|----------------------------------|------------------------------|--------------------------------------------
A|----------------------------------|---3--------------------------|--------------------------------------------
E|----3-----------------------------|------------------------------|-----3--------------------------------------

E|-----------------------------0----|---(0)----------1------0------|--------------------------------------------
B|----1----3--1----3--1-----3-------|-----------1------------------|--------------------------------1-----------
G|----------------------------------|------------------------------|-----2------0---2-----0---2-------------0---
D|----------------------------------|------------------------------|--------------------------------------------
A|----0-----------------------------|------------------------------|--------------------------------------------
E|----------------------------------|----0-------------------------|-----1--------------------------------------

E|-----------------------------0----|----1-------------------------|-----------0--------0-----------------------
B|------------3---1-------3---------|-------------0------1-----3---|---------------3---------3------------------
G|----------------------------------|---------2--------------------|--------------------------------------------
D|--------2-------------------------|----0-------------------------|--------------------------------------------
A|----3-----------------------------|------------------------------|--------------------------------------------
E|----------------------------------|------------------------------|-----3--------------------------------------

E|----0---1--0---1--0----1------3---|----(3)---0---5-------3-------|-----------------------------------------0--
B|----------------------------------|------------------------------|-----1-------3--1-------3--1----3-----------
G|----------------------------------|------------------------------|--------------------------------------------
D|----------------------------------|------------------------------|--------------------------------------------
A|----3-----------------------------|------------------------------|-----0--------------------------------------
E|----------------------------------|-----3------------------------|--------------------------------------------

E|---(0)---------3------0-----------|------------------------------|-------------------------------0------------
B|----------1-----------------------|-------------------------1----|--------------3---1-------3-----------------
G|----------------------------------|-----2-----0--2---0--2------0-|--------------------------------------------
D|----------------------------------|------------------------------|---------2----------------------------------
A|----0-----------------------------|------------------------------|-----3--------------------------------------
E|----------------------------------|-----1------------------------|--------------------------------------------

E|----0----------------------0------|------------------------------|--------------------------------------------
B|--------------1-----3-------------|---------1---1------0------3--|-----(3)-------1----------------------------
G|---------2------------------------|------------------------------|--------------------------------------------
D|----0-----------------------------|------------------------------|--------------------------------------------
A|----------------------------------|------------------------------|------3-------------------------------------
E|----------------------------------|-----3------------------------|--------------------------------------------
tabs and chords, guitar tabs, music transcription, music technology, deep learning, music information retrieval, transcribe into tabs & chords, chordify, music renditions, songsterr, reverbnation, tabulature, bollywood chords, ultimate guitar, yousician, guitar lessons, acoustic guitar, electric guitar, guitar tuner, 911 tabs