Yo Tambien- Intro- Romeo Santos - Guitar Tabs

(/) Slide Up  (\) Slide Down  (h) Hammer On  (p) Pull Off  (b) Bend (r) Release (v) Vibrato (x) Muted

Tabs for Song : 
BPM : 250

Song lyrics here 
E|-----------2--------0--------2-----------------------------------------------------
B|--------0-----0--------0--------------------------1--------------------------4-----
G|-----0-----------0--------0--------------------0--------2--4--5--4--2--4-----2-----
D|--------------------------------------------2--------------------------------4-----
A|-----------------------------------0--2--3-----------------------------------2-----
E|--0--------------------------------------------------------------------------------

E|--------12-14-14-15-15----
B|-----12-------------------
G|--------------------------
D|--------------------------
A|--------------------------
E|--------------------------

E|--7--------0--5-----7--7--8--7--7--8--7--
B|-----7-----0-----5-----------------------
G|-----------0-----------------------------
D|-----------2-----------------------------
A|-----------2-----------------------------
E|-----------0-----------------------------

E|--5-----------10-7-----------------------------------------------------
B|-----8--------------10----7--10-8--7--8--7-----5-----5--5--5--5--7--4--
G|--------7--------------7-----------------------------------------------
D|-----------------------------------------------------------------------
A|-----------------------------------------------------------------------
E|-----------------------------------------------------------------------

Song lyrics here 
E|--
B|--
G|--
D|--
A|--
E|--

Use manual mode to free up cursor. Paste any tab in acousterr tab maker and we'll play it !!!

About Formula, Vol. 2 : The album took effect by the success of its first two singles, "Propuesta Indecente," or "Indecent Proposal," with a zest of bachata-tango mix and "Hatred", featuring Drake, have remained in the top 5 of its 100 weeks . The album has well-known artists from the Latin and pop world such as Drake, Nicki Minaj, Marc Anthony, Tego Calderón and others . The album hit number one in different countries as well as fifth place in the U.S. The music video for Yo También (a song on the album) was viewed over 560 million times on YouTube . The album contains songs that are composed with their significant meaning that carries more than bachata in one song . Formula, Vol. 2's most popular songs include Propuesta Indecente,Odio,Hatred. It had a contribution from notable artists like Romeo Santos. It had an affiliation to bands - Formula, Vol. Its music is influenced by genres - bachata latin pop r&b.

tabs and chords, guitar tabs, music transcription, music technology, deep learning, music information retrieval, transcribe into tabs & chords, chordify, music renditions, songsterr, reverbnation, tabulature, bollywood chords, ultimate guitar, yousician, guitar lessons, acoustic guitar, electric guitar, guitar tuner, 911 tabs