Guitar Tabs for Yiruma - Kiss The Rain

(/) Slide Up  (\) Slide Down  (h) Hammer On  (p) Pull Off  (b) Bend (r) Release (v) Vibrato (x) Muted

Tabs & Chords

Check Track 2 for Chord Positions 

    G#                                  Cm                   Fm                      G#       
E|-----------------------------------------------------------------------------------------8--
B|--------------------------------------------------------------8--8-----9-----9-----11-------
G|--------------------------------------------8-----8-----8--10-------------------------------
D|--------8--8-----10----10-------8--10-8-----------------------------------------------------
A|-----11----------------------11-------------------------------------------------------------
E|--11----------------------------------------------------------------------------------------

                G#    D#          C#                            G#                A#m            
E|-----------------------------------------------------------------------------------------------
B|--11-9--8-----9-----8--------------------------------------------------------------------------
G|--------------------------8-----8-----10----10----8-----------8-----8--------------------------
D|-----------------------------------------------------11-11-------------------8--10----11----11-
A|--------------------------------------------------------------------------11-------------------
E|-----------------------------------------------------------------------------------------------

       G#                D#          G#                         
E|--------------------------------------------------------------
B|--------------------------------------------------------------
G|-----8--------------------------------------------------------
D|-----------11----10----8-----------------8-----8-----10----10-
A|-----------------------------------11-------------------------
E|-----------------------------11-------------------------------

Guitar Tabs for Yiruma - Kiss The Rain






    G#                                  Cm                   Fm                      G#       
E|--4-----------------------------------3--------------------1-----------------------4--------
B|--4-----------------------------------4--------------------1-----------------------4--------
G|--5-----------------------------------5--------------------1-----------------------5--------
D|--6-----------------------------------5--------------------3-----------------------6--------
A|--6-----------------------------------3--------------------3-----------------------6--------
E|--4--------------------------------------------------------1-----------------------4--------

                G#    D#          C#                            G#                A#m            
E|--------------4-----6-----------4-----------------------------4-----------------1--------------
B|--------------4-----8-----------6-----------------------------4-----------------2--------------
G|--------------5-----8-----------6-----------------------------5-----------------3--------------
D|--------------6-----8-----------6-----------------------------6-----------------3--------------
A|--------------6-----6-----------4-----------------------------6-----------------1--------------
E|--------------4-----------------------------------------------4--------------------------------

       G#                D#          G#                         
E|-----4-----------------6-----------4--------------------------
B|-----4-----------------8-----------4--------------------------
G|-----5-----------------8-----------5--------------------------
D|-----6-----------------8-----------6--------------------------
A|-----6-----------------6-----------6--------------------------
E|-----4-----------------------------4--------------------------

tabs and chords, guitar tabs, music transcription, music technology, deep learning, music information retrieval, transcribe into tabs & chords, chordify, music renditions, songsterr, reverbnation, tabulature, bollywood chords, ultimate guitar, yousician, guitar lessons, acoustic guitar, electric guitar, guitar tuner, 911 tabs