Guitar Tabs for Kiss The Rain

(/) Slide Up  (\) Slide Down  (h) Hammer On  (p) Pull Off  (b) Bend (r) Release (v) Vibrato (x) Muted

Tabs for Song : 

Song lyrics here
E|---------------------------------------------------------0h2---2h3--3--------5---5h7--5-----2--------------
B|--------------0--0--------------0-----3--3-----------3-----------------0-----------------8--------3--------
G|-----0--2--2---------------0h2-----2-----------------------------------------------------------4-----4-----
D|--0-----------------0-----------------------0------------------2h---------2-----------------0-----------0--
A|-----------------------------------------------------------------------------------------------------------
E|-----------3-----------3-----------2-----------2-----------------------------------------------------------

E|--3--2--------0--0--------------------------------------------------------
B|--------3--3--------------3--1--1--3--3--------0--1--3--1--0--------0-----
G|--------------------0--------------------0--2--------------------0-----2--
D|-----------------------------------------------------------0--0-----------
A|-----------3-----------3--------2--------------0--------------------------
E|--------------------------------------------------------------------------
tabs and chords, guitar tabs, music transcription, music technology, deep learning, music information retrieval, transcribe into tabs & chords, chordify, music renditions, songsterr, reverbnation, tabulature, bollywood chords, ultimate guitar, yousician, guitar lessons, acoustic guitar, electric guitar, guitar tuner, 911 tabs