Guitar Tabs for Yeh Reshmi Zulfein - Md Rafi Tabs

(/) Slide Up  (\) Slide Down  (h) Hammer On  (p) Pull Off  (b) Bend (r) Release (v) Vibrato (x) Muted

Tabs for Song : Yeh Reshmi Zulfein

Yeh Reshamii Zulfein
E|--------10-10-10/12\10-10\8--8--
B|--8--8--------------------------
G|--------------------------------
D|--------------------------------
A|--------------------------------
E|--------------------------------

Yeh Sharabatii Aankhen
E|--------8--8---8/10\8---8p6--6-----------
B|---6/8--------------------------10-10p8--
G|-----------------------------------------
D|-----------------------------------------
A|-----------------------------------------
E|-----------------------------------------

Inhen Dekh Kar Jee Rahe Hain Sabhii
E|-----------------------------------------------------------------
B|--8--8--10-10p8--10/11-11-11-10-10\8--11-11-11-10-10\8--8--8--8--
G|-----------------------------------------------------------------
D|-----------------------------------------------------------------
A|-----------------------------------------------------------------
E|-----------------------------------------------------------------

Inhen Dekh Kar Jee Rahe Hain Sabhii
E|-----------------------------------------------------------------
B|--8--8--10-10p8--10/11-11-11-10-10\8--11-11-11-10-10\8--8--8--8--
G|-----------------------------------------------------------------
D|-----------------------------------------------------------------
A|-----------------------------------------------------------------
E|-----------------------------------------------------------------

Yeh Reshamii Zulfein
E|--------10-10-10/12\10-10\8--8--
B|--8--8--------------------------
G|--------------------------------
D|--------------------------------
A|--------------------------------
E|--------------------------------

Yeh Sharabatii Aankhen
E|--------8--8---8/10\8---8p6--6-----------
B|---6/8--------------------------10-10p8--
G|-----------------------------------------
D|-----------------------------------------
A|-----------------------------------------
E|-----------------------------------------

Inhen Dekh Kar Jee Rahe Hain Sabhii
E|-----------------------------------------------------------------
B|--8--8--10-10p8--10/11-11-11-10-10\8--11-11-11-10-10\8--8--8--8--
G|-----------------------------------------------------------------
D|-----------------------------------------------------------------
A|-----------------------------------------------------------------
E|-----------------------------------------------------------------

Inhen Dekh Kar Jee Rahe Hain Sabhii
E|------------------6/8--8---8/10\8---8\6--6--6--6--------------------
B|--8--8--10-10\8-----------------------------------10-10p8--8--8--8--
G|--------------------------------------------------------------------
D|--------------------------------------------------------------------
A|--------------------------------------------------------------------
E|--------------------------------------------------------------------
tabs and chords, guitar tabs, music contests, music covers, songsterr, reverbnation, renditions, tabulature, bollywood chords, ultimate guitar, yousician, guitar lessons, torrins, fender, gibson, acoustic guitar, electric guitar, youtube covers, gootar, guitar tuner, A-Z tabs, 911 tabs