Guitar Tabs for Yeh Jism Hai Toh Kya - Jism 2 Tabs

(/) Slide Up  (\) Slide Down  (h) Hammer On  (p) Pull Off  (b) Bend (r) Release (v) Vibrato (x) Muted

Tabs for Song : Yeh Jism Hai Toh Kya

Ye Jism Hai Toh Kya Ye Ruhh Ka Libaas Hai Ye Dard Hai Toh Kya Ye Ishq Ki Talaash Hai
E|-----------------------------------------------------------------------------
B|-----8--7--8--7--8-----8--7--8--7--8--10-7-----7-----7-----7-----7-----7--8--
G|--------------------------------------------9-----9-----------9-----9--------
D|--9-----------------9-----------------------------------9--------------------
A|-----------------------------------------------------------------------------
E|-----------------------------------------------------------------------------

Fanaa Kiya Mujhe Ye Chaahne Ki Aas Ne
E|-----------------------------------------
B|-----7---7/8--7-----------------------7--
G|--9--------------9--7--9--7--9--7--9-----
D|-----------------------------------------
A|-----------------------------------------
E|-----------------------------------------

Taraa Taraa Shikast Hi Hua
E|--------------------------------
B|-----------------7--------------
G|--7--7-----9--7-----9--7--------
D|--------10----------------10-9--
A|--------------------------------
E|--------------------------------

Raza Hai Kya Teri Dil-O-Jahaan Tabaah Kiya Sazaa Bhi Kya Teri
E|-----15-14-15-14-15----15-14-15-14-15-17\15-14-12-14-12-14-
B|--12----------------12-------------------------------------
G|-----------------------------------------------------------
D|-----------------------------------------------------------
A|-----------------------------------------------------------
E|-----------------------------------------------------------

Wafaa Ko Bewafa Kiya Tu Vaar Zindagi 
E|-----14-12-14-12-14-15-12-14-14/15-14-12-
B|--12-------------------------------------
G|-----------------------------------------
D|-----------------------------------------
A|-----------------------------------------
E|-----------------------------------------

Se Yun Mujhe Judaa Kiya Kahaan Kahaan Phirun Main Dhoondta
E|-----12----12----12-14-10-10----12-10-14-12-10-------
B|--15----15----15-------------13----------------13-12-
G|-----------------------------------------------------
D|-----------------------------------------------------
A|-----------------------------------------------------
E|-----------------------------------------------------

Again Repeat Previous One....
tabs and chords, guitar tabs, music contests, music covers, songsterr, reverbnation, renditions, tabulature, bollywood chords, ultimate guitar, yousician, guitar lessons, torrins, fender, gibson, acoustic guitar, electric guitar, youtube covers, gootar, guitar tuner, A-Z tabs, 911 tabs