Guitar Tabs for Ye fitoor mera

Tabs for Song : Ye fitoor mera 

E|--------------------------------------
B|--------2--0--------------2--0--------
G|-----2--------2--1--------------2-----
D|--4-----------------4--2--------------
A|--------------------------------------
E|--------------------------------------

E|--------------------------
B|--------------0-----------
G|-----1--2--1--------------
D|--4--------------2--4-----
A|--------------------------
E|--------------------------

E|--------------------------------------
B|--------2--0--------------2--0--------
G|-----2--------2--1--------------2-----
D|--4-----------------4--2--------------
A|--------------------------------------
E|--------------------------------------

E|--------------------------
B|--------------0-----------
G|-----1--2--1--------------
D|--4--------------2--4-----
A|--------------------------
E|--------------------------

Zindagi ne ki hai kaisi saazishein
E|-----------------------------------------
B|-----------0--------------0--------------
G|--2--2--1-----2-----2--1-----------------
D|-----------------------------4--4--4-----
A|-----------------------------------------
E|-----------------------------------------

Poori hui dil ki wo farmaishein
E|-----------------------------------------
B|-----------0--------------0--------------
G|--2--2--1--------2--2--1-----------------
D|-----------------------------4--4--4-----
A|-----------------------------------------
E|-----------------------------------------

Maangi duaa ek tujh tak jaa pahunchi Parvardigara,
E|--------------------------------------------------
B|--------2--0-----------2--0-----0--0--------------
G|--------------2--------------2--------------------
D|--4--4-----------4--4-----------------2--2--4-----
A|--------------------------------------------------
E|--------------------------------------------------

parvardigara
E|--------------------
B|--0--0--------------
G|--------------------
D|--------2--2--4-----
A|--------------------
E|--------------------

Kaisi suni tune meri khamoshi O parvardigara
E|--------------------------------------------------
B|--------2--0-----------2--0-----0--0--------------
G|--------------2--------------2--------------------
D|--4--4-----------4--4-----------------2--2--4-----
A|--------------------------------------------------
E|--------------------------------------------------

Ye fitoor mera 
E|-----0--0--2--2--0--------------
B|--2-----------------2--0--0-----
G|--------------------------------
D|--------------------------------
A|--------------------------------
E|--------------------------------

laaya mujhko hai tere kareeb
E|--------0--------------------------
B|-----0-----2--2--2--0--------------
G|--2--------------------2-----------
D|--------------------------2--4-----
A|-----------------------------------
E|-----------------------------------

Ye fitoor mera rehmat teri
E|-----0--0--2--2--0-----------------0--------
B|--2-----------------2--0--0-----0-----2-----
G|-----------------------------2--------------
D|--------------------------------------------
A|--------------------------------------------
E|--------------------------------------------

Ye fitoor mera
E|-----0--2--5--4--2--0-----------
B|--2--------------------2--0-----
G|--------------------------------
D|--------------------------------
A|--------------------------------
E|--------------------------------

maine badla re mera naseeb
E|--------0--------------------------
B|-----0-----2--2--2--0--------------
G|--2--------------------2-----------
D|--------------------------2--4-----
A|-----------------------------------
E|-----------------------------------

Ye fitoor mera chaahat teri
E|-----0--0--2--2--0-----------------0--------
B|--2-----------------2--0--0-----0-----2-----
G|-----------------------------2--------------
D|--------------------------------------------
A|--------------------------------------------
E|--------------------------------------------

O parvardigara, parvardigara
E|-----------------------------------------
B|--0--0--0--0-----------0--0--------------
G|-----------------------------------------
D|--------------2--4-----------2--2--4-----
A|-----------------------------------------
E|-----------------------------------------

Dheeme dheeme jal rahi thi khwaishein
E|-----------------------------------------
B|-----------0--------------0--------------
G|--2--2--1-----2-----2--1-----------------
D|-----------------------------4--4--4-----
A|-----------------------------------------
E|-----------------------------------------

Dil mein dabi, ghut rahi farmaaishein
E|-----------------------------------------
B|-----------0--------------0--------------
G|--2--2--1-----2-----2--1-----------------
D|-----------------------------4--4--4-----
A|-----------------------------------------
E|-----------------------------------------

Banke dhuaan wo,Tujh tak jaa pahunchi, parvardigara
E|--------------------------------------------------
B|--------2--0-----------2--0-----0--0--------------
G|--------------2--------------2--------------------
D|--4--4-----------4--4-----------------2--2--4-----
A|--------------------------------------------------
E|--------------------------------------------------

parvardigara..
E|--------------------
B|--0--0--------------
G|--------------------
D|--------2--2--4-----
A|--------------------
E|--------------------

Deewangi ki hadd maine nochi o parvardigara
E|--------------------------------------------------
B|--------2--0-----------2--0-----0--0--------------
G|--------------2--------------2--------------------
D|--4--4-----------4--4-----------------2--2--4-----
A|--------------------------------------------------
E|--------------------------------------------------

Ye fitoor mera 
E|-----0--0--2--2--0--------------
B|--2-----------------2--0--0-----
G|--------------------------------
D|--------------------------------
A|--------------------------------
E|--------------------------------

laaya mujhko hai tere kareeb
E|--------0--------------------------
B|-----0-----2--2--2--0--------------
G|--2--------------------2-----------
D|--------------------------2--4-----
A|-----------------------------------
E|-----------------------------------


tabs and chords, guitar tabs, music contests, music covers, songsterr, reverbnation, renditions, tabulature, bollywood chords, ultimate guitar, yousician, guitar lessons, torrins, fender, gibson, acoustic guitar, electric guitar, youtube covers, gootar, guitar tuner, A-Z tabs, 911 tabs