Guitar Tabs for Ye Raatein Ye Mausam Nadi Ka Kinara

(/) Slide Up  (\) Slide Down  (h) Hammer On  (p) Pull Off  (b) Bend (r) Release (v) Vibrato (x) Muted

Tabs & Chords
BPM : 98.0
Check Track 2 for Chord Positions 

                                                                                              
E|--------------------------------------------------0--0--------------------------8--------8--
B|--------9--8-----------9--8-----------9--8-----------------------8--------------------11----
G|--10-10----------10-10----------10-10----------10----------------------10-10----------------
D|-----------------------------------------------------------10-10----------------------------
A|--------------------------------------------------------------------------------------------
E|--------------------------------------------------------------------------------------------

                                  G                                                           
E|--9--11-8-----9--8-----------------------0--------------------------------------------------
B|--------------------11-9--8-----8--9--11----------------9--8-----------9--8-----------9--8--
G|--------------------------------------------10----10-10----------10-10----------10-10-------
D|--------------------------------------------------------------------------------------------
A|--------------------------------------------------------------------------------------------
E|--------------------------------------------------------------------------------------------

                   C                                                                          
E|--------0--0-----------------------------8--8--8--8-----8--9-----------------------8--------
B|--------------------------8--------------------------11----------11-11-11-9--9--11-------9--
G|-----10-------------------------10-10-------------------------------------------------------
D|-----------------10-10-10-------------------------------------------------------------------
A|--------------------------------------------------------------------------------------------
E|--------------------------------------------------------------------------------------------

                                                                                              
E|--------------------------------------------------------------------0--0--------------------
B|--11-9--11-9--9--8-----------9--8--------9--8-----------9--8-----------------------8--------
G|-----------------------10-10----------10----------10-10----------10----------------------10-
D|-----------------------------------------------------------------------------10-10----------
A|--------------------------------------------------------------------------------------------
E|--------------------------------------------------------------------------------------------

                         G#                                                                   
E|--------------------------------------------------------------------------------------------
B|--------------8-----9--9--9--9-----11-9--11-9-----9-----9--------------8--8--8--8--8-----9--
G|--10----10-10----10----------------------------10-------------8--10-8-----------------------
D|--------------------------------------------------------------------------------------------
A|--------------------------------------------------------------------------------------------
E|--------------------------------------------------------------------------------------------

                                                                                              
E|-----------------------------------------8-----8--8--13----11-9--------------8-----------9--
B|--8--9--8-----------------8--9--8--9--11-------------------------11----11-11----10-11-11----
G|-----------8--8--10----10-------------------------------------------------------------------
D|--------------------------------------------------------------------------------------------
A|--------------------------------------------------------------------------------------------
E|--------------------------------------------------------------------------------------------

                   G#                                                                         
E|--8--------------------------------------------8--8--13----11-8-----------8-----------9--8--
B|-----------------------8--------------8--9--11-------------------11-11-11----10-11-11-------
G|-----------8-----8--10----8--8--10----------------------------------------------------------
D|--------11----------------------------------------------------------------------------------
A|--------------------------------------------------------------------------------------------
E|--------------------------------------------------------------------------------------------

                                                                                              
E|-----8--8--13----11-9--------------8--------------9--8-----8--8--11-11----11-11-10-11----8--
B|-----------------------11----11-11----10----11-11-------------------------------------------
G|--------------------------------------------------------------------------------------------
D|--------------------------------------------------------------------------------------------
A|--------------------------------------------------------------------------------------------
E|--------------------------------------------------------------------------------------------

                                                                                                 
E|--8--11-11----11-11-10-11----8--8--11----10-8--------------------------------------------------
B|-----------------------------------------------11----10-8-----8-----11-9-----------9--8--------
G|-----------------------------------------------------------10----------------10-10----------10-
D|-----------------------------------------------------------------------------------------------
A|-----------------------------------------------------------------------------------------------
E|-----------------------------------------------------------------------------------------------

                                                             
E|--------------------------------0--0-----------------------
B|-----9--8-----------9--8-----------------------8--8--------
G|--10----------10-10----------10----------------------10-10-
D|-----------------------------------------10-10-------------
A|-----------------------------------------------------------
E|-----------------------------------------------------------

Guitar Tabs for Ye Raatein Ye Mausam Nadi Ka Kinara






                                                                                              
E|--------------------------------------------------------------------------------------------
B|--------------------------------------------------------------------------------------------
G|--------------------------------------------------------------------------------------------
D|--------------------------------------------------------------------------------------------
A|--------------------------------------------------------------------------------------------
E|--------------------------------------------------------------------------------------------

                                  G                                                           
E|--------------------------------3-----------------------------------------------------------
B|--------------------------------3-----------------------------------------------------------
G|--------------------------------4-----------------------------------------------------------
D|--------------------------------5-----------------------------------------------------------
A|--------------------------------5-----------------------------------------------------------
E|--------------------------------3-----------------------------------------------------------

                   C                                                                          
E|-----------------0--------------------------------------------------------------------------
B|-----------------1--------------------------------------------------------------------------
G|-----------------0--------------------------------------------------------------------------
D|-----------------2--------------------------------------------------------------------------
A|-----------------3--------------------------------------------------------------------------
E|--------------------------------------------------------------------------------------------

                                                                                              
E|--------------------------------------------------------------------------------------------
B|--------------------------------------------------------------------------------------------
G|--------------------------------------------------------------------------------------------
D|--------------------------------------------------------------------------------------------
A|--------------------------------------------------------------------------------------------
E|--------------------------------------------------------------------------------------------

                         G#                                                                   
E|-----------------------4--------------------------------------------------------------------
B|-----------------------4--------------------------------------------------------------------
G|-----------------------5--------------------------------------------------------------------
D|-----------------------6--------------------------------------------------------------------
A|-----------------------6--------------------------------------------------------------------
E|-----------------------4--------------------------------------------------------------------

                                                                                              
E|--------------------------------------------------------------------------------------------
B|--------------------------------------------------------------------------------------------
G|--------------------------------------------------------------------------------------------
D|--------------------------------------------------------------------------------------------
A|--------------------------------------------------------------------------------------------
E|--------------------------------------------------------------------------------------------

                   G#                                                                         
E|-----------------4--------------------------------------------------------------------------
B|-----------------4--------------------------------------------------------------------------
G|-----------------5--------------------------------------------------------------------------
D|-----------------6--------------------------------------------------------------------------
A|-----------------6--------------------------------------------------------------------------
E|-----------------4--------------------------------------------------------------------------

                                                                                              
E|--------------------------------------------------------------------------------------------
B|--------------------------------------------------------------------------------------------
G|--------------------------------------------------------------------------------------------
D|--------------------------------------------------------------------------------------------
A|--------------------------------------------------------------------------------------------
E|--------------------------------------------------------------------------------------------

                                                                                                 
E|-----------------------------------------------------------------------------------------------
B|-----------------------------------------------------------------------------------------------
G|-----------------------------------------------------------------------------------------------
D|-----------------------------------------------------------------------------------------------
A|-----------------------------------------------------------------------------------------------
E|-----------------------------------------------------------------------------------------------

                                                             
E|-----------------------------------------------------------
B|-----------------------------------------------------------
G|-----------------------------------------------------------
D|-----------------------------------------------------------
A|-----------------------------------------------------------
E|-----------------------------------------------------------

tabs and chords, guitar tabs, music transcription, music technology, deep learning, music information retrieval, transcribe into tabs & chords, chordify, music renditions, songsterr, reverbnation, tabulature, bollywood chords, ultimate guitar, yousician, guitar lessons, acoustic guitar, electric guitar, guitar tuner, 911 tabs