Guitar Tabs for Xxxtentacion & Lil Uzi Vert - Sad! (kid Travis Cover)

Song:  https://www.youtube.com/watch?v=JpP5FC-flyo

Hey all,
Since I really liked the remix / mashup from Kid Travis, and found it hard to find the right chords / tabs I decided
to try and make them myself.

If you have any suggestions let me know!
Cheers, Noah

Basic Chords:
    Fm          A#7      No clue        C9sus4
E|--8-----------6-----------6-----------3--------------
B|--9-----------6-----------8-----------3--------------
G|--10----------7-----------7-----------3--------------
D|--10----------6-----------8-----------3--------------
A|--8-----------8-----------6-----------3--------------
E|--------------6--------------------------------------

Tabs for Song (continue throughout the song): 

BPM : 180

E|--------8--------8--------------------------------------------------------------------------------
B|--------9--------9--------------------------------------8--------8-----------3--------3--4p3-----
G|--------10-------10----------7--------7---8p7-----------7--------7-----------7--------3--------5--
D|--------10-------10----------6--------6-----------------8--------8-----------3--------3-----------
A|--8-----------8--------------8--------8-----------6-----------6--------3-----------3--------------
E|-----------------------6-----------6-----------6--------------------------------------------------

Lyrics:

[Intro]

Who am I?    Someone that's afraid to let go, uh
You decide,  if you're ever gonna let me know, yeah
Suicide,     if you ever try to let me go
I'm sad, I know, yeah
I'm sad, I know, yeah

Who am I?    Someone that's afraid to let go, uh
You decide,  if you're ever gonna let me know, yeah
Suicide,     if you ever try to let me go
I'm sad, I know, yeah
I'm sad, I know, yeah

I gave her everything
She took my heart and left me lonely
I've been broken, heart's contentious
I won't fix, I'd rather weep
I'm lost then   I'm found but 
It's torture being in love
I love when     You're around but
You know I hate when you leave

Who am I?    Someone that's afraid to let go, uh
You decide,  if you're ever gonna let me know, yeah
Suicide,     if you ever try to let me go
I'm sad, I know, yeah
I'm sad, I know, yeah

Yeah!
I don't really care if you cry
On the real, you shoulda never lied
Shoulda saw the way she looked me in my eyes
She said: "Baby, I am not afraid to die."

Push me to the edge      All my friends are dead
Push me to the edge      All my friends are dead
Push me to the edge      All my friends are dead
Push me to the edge      

Who am I?    Someone that's afraid to let go, uh
You decide,  if you're ever gonna let me know, yeah
Suicide,     if you ever try to let me go
I'm sad, I know, yeah
I'm sad, I know, yeah
tabs and chords, guitar tabs, music transcription, music technology, deep learning, music information retrieval, transcribe into tabs & chords, chordify, music renditions, songsterr, reverbnation, tabulature, bollywood chords, ultimate guitar, yousician, guitar lessons, acoustic guitar, electric guitar, guitar tuner, 911 tabs