Guitar Tabs for Sad!

(/) Slide Up  (\) Slide Down  (h) Hammer On  (p) Pull Off  (b) Bend (r) Release (v) Vibrato (x) Muted

Tabs for Song : SAD! by:XXXTentacion

Lyrics:
Yeah
Who am I? Someone that's afraid to let go, uh
You decide, if you're ever gonna, let me know (yeah)
Suicide, if you ever try to let go, uh
I'm sad and low, yeah
I'm sad and low, yeah
Who am I? Someone that's afraid to let go, uh
You decide, if you're ever gonna, let me know (yeah)
Suicide, if you ever try to let go, uh
I'm sad and low, yeah
I'm sad and low, yeah
I gave her everything
She took my heart and left me lonely
I've been broken, heart's contentious
I won't fix, I'd rather weep
I'm lost and I'm found, but
It's torture being in love
I love when you're around
But I fucking hate when you leave
Who am I? Someone that's afraid to let go, uh
You decide, if you're ever gonna, let me know (yeah)
Suicide, if you ever try to let go, uh
I'm sad and low, yeah
I'm sad and low, yeah
Who am I? Someone that's afraid to let go, uh
You decide, if you're ever gonna, let me know (yeah)
Suicide, if you ever try to let go, uh
I'm sad and low, yeah
I'm sad and low, yeah
Who am I? Someone that's afraid to let go, uh
You decide, if you're ever gonna, let me know (yeah)
Suicide, if you ever try to let go, uh
I'm sad and low, yeah
I'm sad and low, yeah
Who am I? Someone that's afraid to let go, uh
You decide, if you're ever gonna, let me know (yeah)
Suicide, if you ever try to let go, uh
I'm sad and low, yeah
I'm sad and low, yeah



E|--------------------------------------------------------------------------------------
B|--------------------------------------------------------------------------------------
G|--0-----------------------------------------------0-----------------------------------
D|--------------1-----------1--------------0--------------------1-----------1-----------
A|--------------------------------------------------------------------------------------
E|--------------------------------------------------------------------------------------

E|--------------------------------------------------------------------------
B|--------------------------------------------------------------------------
G|--------------0-----------1--0-----------0-----------------0--------------
D|-----0-----0--------1-----------3--3--1-----1--3--1--3--1-----1--3--1--3--
A|--------------------------------------------------------------------------
E|--------------------------------------------------------------------------

E|--------------------------------------------------------------
B|--------------------------------------------------------------
G|--0-----------1--0-----------0-----------------0--------------
D|--------1-----------3--3--1-----1--3--1--3--1-----1--3--1--3--
A|--------------------------------------------------------------
E|--------------------------------------------------------------

E|-----------------------------------------------------------------
B|--4--1--------------------------4--3--1--------------------------
G|--------0-----0-----0-----0--0-----------0-----0-----0-----0-----
D|-----------3-----3-----3--------------------3-----3-----3-----1--
A|-----------------------------------------------------------------
E|-----------------------------------------------------------------

E|-----------------------------------------------------------------
B|--4--1-----------------------------------------------------------
G|--------0-----0-----0-----0--0--------3--0-----------3--0--------
D|-----------3-----3-----3--------1--1--------3--1--1--------3--1--
A|-----------------------------------------------------------------
E|-----------------------------------------------------------------

E|-----------------------------------------------------------------------
B|--4--1--------------------------4--3--1--------------------------------
G|--------0-----0-----0-----0--0-----------0-----0-----0-----0-----0-----
D|-----------3-----3-----3--------------------3-----3-----3-----3-----1--
A|-----------------------------------------------------------------------
E|-----------------------------------------------------------------------

E|--------------------------------------------------------------=--
B|--4--1-----------------------------------------------------------
G|--------0-----0-----0-----0--0--------3--0-----------3--0--------
D|-----------3-----3-----3--------1--1--------3--1--1--------3--1--
A|-----------------------------------------------------------------
E|-----------------------------------------------------------------

E|--------------------------------------------------------------
B|--------------------------------------------------------------
G|-----0--0-----1--0-----------0--0-----1--0-----------0--0--0--
D|-----------1--------3--1-----------1--------3--1--------------
A|--------------------------3-----------------------3-----------
E|--------------------------------------------------------------

E|--------------------------------------------------------------
B|--------------------------------------------------------------
G|--1--0-----------0--0--3--1--0-----------0--0--------0--0-----
D|--------3--1--------------------3--1-----------3-----------3--
A|--------------3-----------------------------------------------
E|--------------------------------------------------------------

E|--------------------------------------------------
B|--------------------------------------------------
G|-----0--0-----1--0-----------0--0--------0--0-----
D|-----------1--------3--1-----------3-----------1--
A|--------------------------------------------------
E|--------------------------------------------------

E|-----------------------------------------------------------------
B|--------------4--1--------------------------4--3--1--------------
G|--1--0--------------0-----0-----0-----0--0-----------0-----0-----
D|--------3--1-----------3-----3-----3--------------------3-----3--
A|-----------------------------------------------------------------
E|-----------------------------------------------------------------

E|--------------------------------------------------------------------
B|--------------------4--1--------------------------------------------
G|--0-----0-----0-----------0-----0-----0-----0--0--------3--0--------
D|-----3-----3-----1-----------3-----3-----3--------1--1--------3--1--
A|--------------------------------------------------------------------
E|--------------------------------------------------------------------

E|--------------------------------------------------------------------
B|-----------------4--1--------------------------4--3--1--------------
G|-----3--0--------------0-----0-----0-----0--0-----------0-----0-----
D|--1--------3--1-----------3-----3-----3--------------------3-----3--
A|--------------------------------------------------------------------
E|--------------------------------------------------------------------

E|--------------------------------------------------------------------
B|--------------------4--1--------------------------------------------
G|--0-----0-----0-----------0-----0-----0-----0--0--------3--0--------
D|-----3-----3-----1-----------3-----3-----3--------1--1--------3--1--
A|--------------------------------------------------------------------
E|--------------------------------------------------------------------

E|--------------------------------------------------------------------------------------
B|--------------------------------------------------------------------------------------
G|-----3--0-----------0-----------------------------------------0-----------------------
D|--1--------3--1-----------------1-----------1--------0--------------------1-----------
A|--------------------------------------------------------------------------------------
E|--------------------------------------------------------------------------------------

E|--------------------------------------------------------------------------
B|-----------------------4--1--------------------------4--3--1--------------
G|-----------------------------0-----0-----0-----0--0-----------0-----0-----
D|--1--------------0--0-----------3-----3-----3--------------------3-----3--
A|--------------------------------------------------------------------------
E|--------------------------------------------------------------------------

E|--------------------------------------------------------------------
B|--------------------4--1--------------------------------------------
G|--0-----0-----0-----------0-----0-----0-----0--0--------3--0--------
D|-----3-----3-----1-----------3-----3-----3--------1--1--------3--1--
A|--------------------------------------------------------------------
E|--------------------------------------------------------------------

E|--------------------------------------------------------------------
B|-----------------4--1--------------------------4--3--1--------------
G|-----3--0--------------0-----0-----0-----0--0-----------0-----0-----
D|--1--------3--1-----------3-----3-----3--------------------3-----3--
A|--------------------------------------------------------------------
E|--------------------------------------------------------------------

E|--------------------------------------------------------------------------------------
B|--------------------4--1-----------------------------------------------------------
G|--0-----0-----0-----------0-----0-----0-----0--0--------3--0-----------3--0--------
D|-----3-----3-----1-----------3-----3-----3--------1--1--------3--1--1--------3--1--
A|-----------------------------------------------------------------------------------
E|-----------------------------------------------------------------------------------




tabs and chords, guitar tabs, music contests, music covers, songsterr, reverbnation, renditions, tabulature, bollywood chords, ultimate guitar, yousician, guitar lessons, torrins, fender, gibson, acoustic guitar, electric guitar, youtube covers, gootar, guitar tuner, A-Z tabs, 911 tabs