Guitar Tabs for Xxxtentacion - Jocelyn Flores

(/) Slide Up  (\) Slide Down  (h) Hammer On  (p) Pull Off  (b) Bend (r) Release (v) Vibrato (x) Muted

Tabs for Song : 
BPM : 200

Song lyrics here 
E|-----------6-----3--6--------------------------------------------10----6--3-----6-----------------------
B|--1--3--4-----------------3--------------------4--3-----1--3--4--------------------3--------------------
G|--------------------------------------------------------------------------------------------------------
D|--------------------------------------------------------------------------------------------------------
A|--------------------------------------------------------------------------------------------------------
E|--------------------------------------------------------------------------------------------------------

E|--3--1--------------------------6-----3--6-----------------------------------10----6--3-----6-----------
B|-----------4--3-----1--3--4--------------------3-----------4--3-----1--3--4--------------------3--------
G|--------------------------------------------------------------------------------------------------------
D|--------------------------------------------------------------------------------------------------------
A|--------------------------------------------------------------------------------------------------------
E|--------------------------------------------------------------------------------------------------------

E|--3--1--------------3--1--------------------------------------3--3--6--------------3-----1--------------
B|--------4--3--1-----------4--3-----3--------3--4--3--------4-----------3--4--1--------------4--3--4--3--
G|-----------------3--------------------3--3--------------------------------------------------------------
D|--------------------------------------------------------------------------------------------------------
A|--------------------------------------------------------------------------------------------------------
E|--------------------------------------------------------------------------------------------------------

E|--3--1--------------------3--1--------------------------------------3--3--6--------------3--1-----------
B|--------4--3-----1--------------4--3--3--------3--4--3-----------4-----------3--4--1-----------4--3--4--
G|-----------------------3-----------------3--3-----------------------------------------------------------
D|--------------------------------------------------------------------------------------------------------
A|--------------------------------------------------------------------------------------------------------
E|--------------------------------------------------------------------------------------------------------

E|--------------------6-----3--6--------------------------10----6--3-----6-----------------------------------
B|--3--------1--3--4-----------------3-----4--3--1--3--4-----------------------3-----------------------------
G|-----------------------------------------------------------------------------------------------------------
D|-----------------------------------------------------------------------------------------------------------
A|-----------------------------------------------------------------------------------------------------------
E|-----------------------------------------------------------------------------------------------------------
tabs and chords, guitar tabs, music transcription, music technology, deep learning, music information retrieval, transcribe into tabs & chords, chordify, music renditions, songsterr, reverbnation, tabulature, bollywood chords, ultimate guitar, yousician, guitar lessons, acoustic guitar, electric guitar, guitar tuner, 911 tabs