Bass Tabs for Titãs - Flores

BASS TAB
Titãs - Flores

Intro
G|-----------
D|-----------  2x
A|--5-----7--
E|-----7-----

G|-----------------------
D|-----------------------   2x
A|--5--------------------   
E|-----7--5-----7--7--5--

Fast Verse
G|--------------------------------------------------
D|--------------------------------------------------
A|--5--5--5-----7--7-----------5-----7--7-----------
E|-----------7--------7--7--7-----7--------7--7--7--

G|--------------------------------------------------
D|--------------------------------------------------
A|--5--5--5-----------------------------------------
E|-----------7--5--5--0--0--0--7--7--5--5--0--0--0--

Chorus
G|-----------------------------------------------------------------
D|-----------------------------------------------------------------
A|--7--7--7-----------7--7--7-----------7--7--7-----------7--7--7--
E|-----------5--5--5-----------5--5--5-----------5--5--5-----------

G|--------------------------------------------------------------------------------
D|--------------------------------------------------------------------------------
A|--------4--5--4--------------4--5--4--------------4--5--4--------7--7--7--------
E|--5--7-----------5--7--5--7-----------5--7--5--7-----------7--------------5--5--


tabs and chords, guitar tabs, music transcription, music technology, deep learning, music information retrieval, transcribe into tabs & chords, chordify, music renditions, songsterr, reverbnation, tabulature, bollywood chords, ultimate guitar, yousician, guitar lessons, acoustic guitar, electric guitar, guitar tuner, 911 tabs