Guitar Tabs for Xo Eden (in Progress)

(/) Slide Up  (\) Slide Down  (h) Hammer On  (p) Pull Off  (b) Bend (r) Release (v) Vibrato (x) Muted

Tabs for Song : 

Song lyrics here

E|--------------------------------------------
B|-----11----------------------10-------------
G|-----------------10----------------------9--
D|--------------------------------------------
A|--10----------------------8-----------------uoy
E|--------------10----------------------8-----

E|-----------------------------------------------------------------------
B|-----------------------------------------------------------------------
G|-----7--------10-------9--------------7--------10-12-------9--10-------
D|-----------------------------------------------------------------------
A|-----------------------------------------------------------------------
E|--6-----------10-------8-----------6-----------10----------8-----------

E|--------------------------------------------------------------------------------------------
B|-----11-------------------------------------------------------------------------------------
G|-----------------10----------9--------7--------5--------------3--------3-----------7-----9--
D|--------------------------------------------------------------------------------------------
A|--10----------------------------------------------------------------------------------------
E|--------------10----------8--------6-----------5--------------3--------3--------6--------8--
tabs and chords, guitar tabs, music transcription, music technology, deep learning, music information retrieval, transcribe into tabs & chords, chordify, music renditions, songsterr, reverbnation, tabulature, bollywood chords, ultimate guitar, yousician, guitar lessons, acoustic guitar, electric guitar, guitar tuner, 911 tabs