Guitar Tabs for Eden - Crash

EDEN - crash

[Verse]

      It's been a few years since you've been gone
E|--------------------------------------------------------------------------------------------------|
B|--16----------------11----------------------8-----------------------------------------------------|
G|--------------------------------------------------------------------------------------------------|
D|--------------------------------------------------------------------------------------------------|
A|--15----------------10----------------------6-----------------------------------------------------|
E|--------------------------------------------------------------------------------------------------|

   There's been a few tears, but that was years and years ago
E|--------------------------------------------------------------------------------------------------|
B|--9--------------------8-----------------3--------------------------------------------------------|
G|--------------------------------------------------------------------------------------------------|
D|--------------------------------------------------------------------------------------------------|
A|--8--------------------6-----------------1--------------------------------------------------------|
E|--------------------------------------------------------------------------------------------------|
     Yeah, I grew up to be exactly what you wanted
E|--------------------------------------------------------------------------------------------------|
B|--------------------------------------------------------------------------------------------------|
G|-----------------5-----------7--------------13----------------------------------------------------|
D|--------------------------------------------------------------------------------------------------|
A|--------------------------------------------------------------------------------------------------|
E|-----------------4-----------6--------------13----------------------------------------------------|
      Yeah, I've been living out the dream that you dreamt of
E|--------------------------------------------------------------------------------------------------|
B|--------------------------------------------------------------------------------------------------|
G|--12----------------5--------------8-----------------7--------------------------------------------|
D|--------------------------------------------------------------------------------------------------|
A|--------------------------------------------------------------------------------------------------|
E|--11----------------4--------------8-----------------6--------------------------------------------|
      It's been a few years, but more to come
E|--------------------------------------------------------------------------------------------------|
B|--16----------------11----------------------8-----------------------------------------------------|
G|--------------------------------------------------------------------------------------------------|
D|--------------------------------------------------------------------------------------------------|
A|--15----------------10----------------------6-----------------------------------------------------|
E|--------------------------------------------------------------------------------------------------|
      It's been a few years since I felt sure of what I want
E|--------------------------------------------------------------------------------------------------|
B|--9-----------------8-----------------3-----------------------------------------------------------|
G|--------------------------------------------------------------------------------------------------|
D|--------------------------------------------------------------------------------------------------|
A|--8-----------------6-----------------1-----------------------------------------------------------|
E|--------------------------------------------------------------------------------------------------|
      And I woke up today and found you were waiting here for me and 
E|--------------------------------------------------------------------------------------------------|
B|--------------------------------------------------------------------------------------------------|
G|--------------5--------------7--------------13----12-------5--------------------------------------|
D|--------------------------------------------------------------------------------------------------|
A|--------------------------------------------------------------------------------------------------|
E|--------------4--------------6--------------13----11-------4--------------------------------------|
      I thought... Woah, old friend it's bittersweet
E|--------------------------------------------------------------------------------------------------|
B|--------------------------------------------------------------------------------------------------|
G|-----3-----5-----------------8--------------7-----------------------------------------------------|
D|--------------------------------------------------------------------------------------------------|
A|--------------------------------------------------------------------------------------------------|
E|-----3-----4-----------------8--------------6-----------------------------------------------------|
      How could you do this to me?
E|--------------------------------------------------------------------------------------------------|
B|--------------------------------------------------------------------------------------------------|
G|--8-----------------7-----------5-----------------------------------------------------------------|
D|--------------------------------------------------------------------------------------------------|
A|--------------------------------------------------------------------------------------------------|
E|--8-----------------6-----------4-----------------------------------------------------------------|
      How could you do this to me?                              Yeah
E|--------------------------------------------------------------------------------------------------|
B|--------------------------------------------------------------------------------------------------|
G|--8-----------------7-----------5-----------------------------------------------------------------|
D|--------------------------------------------------------------------------------------------------|
A|--------------------------------------------------------------------------------------------------|
E|--8-----------------6-----------4-----------------------------------------------------------------|
      'Cause you are not who you think you are
E|--------------------------------------------------------------------------------------------------|
B|--------------------------------------------------------------------------------------------------|
G|-----------------------------------5-----5-----------------5-----5--------------------------------|
D|--------------------------------6-----6-----6-----6-----6-----6-----6-----6-----------------------|
A|-----------------------------------------------6-----------------------6--------------------------|
E|-----------------------------4-----------------------4--------------------------------------------|
      There's no grain on these brown eyes, but they can be green if they really want
E|--------------------------------------------------------------------------------------------------|
B|--------------------------------------------------------------------------------------------------|
G|--------8-----8-----------------7-----7-----------------------------------------------------------|
D|-----10----10----10----10----8-----8-----8-----8--------------------------------------------------|
A|--------------------10----------------------8-----------------------------------------------------|
E|--8-----------------------6-----------------------------------------------------------------------|

E|--------------------------------------------------------------------------------------------------|
B|--------------------------------------------------------------------------------------------------|
G|--------5-----5-----------------5-----5-----------------------------------------------------------|
D|-----6-----6-----6-----6-----6-----6-----6-----6--------------------------------------------------|
A|--------------------6-----------------------6-----------------------------------------------------|
E|--4-----------------------4-----------------------------------------------------------------------|
      And I can bet your voice that they say exactly what hurts the most
E|--------------------------------------------------------------------------------------------------|
B|--------------------------------------------------------------------------------------------------|
G|--------8-----8-----------------7-----7-----------------------------------------------------------|
D|-----10----10----10----10----8-----8-----8-----8--------------------------------------------------|
A|--------------------10----------------------8-----------------------------------------------------|
E|--8-----------------------6-----------------------------------------------------------------------|

E|--------------------------------------------------------------------------------------------------|
B|--------------------------------------------------------------------------------------------------|
G|--------5-----5-----------------5-----5-----------------------------------------------------------|
D|-----6-----6-----6-----6-----6-----6-----6-----6--------------------------------------------------|
A|--------------------6-----------------------6-----------------------------------------------------|
E|--4-----------------------4-----------------------------------------------------------------------|
      But silence is better than fake laughs be faking, they always are 
E|--------------------------------------------------------------------------------------------------|
B|--------------------------------------------------------------------------------------------------|
G|--------8-----8-----------------7-----7-----------------------------------------------------------|
D|-----10----10----10----10----8-----8-----8-----8--------------------------------------------------|
A|--------------------10----------------------8-----------------------------------------------------|
E|--8-----------------------6-----------------------------------------------------------------------|
      too scared
E|--------------------------------------------------------------------------------------------------|
B|--------------------------------------------------------------------------------------------------|
G|--------5-----5-----------------5-----5-----------------------------------------------------------|
D|-----6-----6-----6-----6-----6-----6-----6-----6--------------------------------------------------|
A|--------------------6-----------------------6-----------------------------------------------------|
E|--4-----------------------4-----------------------------------------------------------------------|
      The world bends around you we're living through cracked screens
E|--------------------------------------------------------------------------------------------------|
B|--------------------------------------------------------------------------------------------------|
G|--------8-----8-----------------7-----7-----------------------------------------------------------|
D|-----10----10----10----10----8-----8-----8-----8--------------------------------------------------|
A|--------------------10----------------------8-----------------------------------------------------|
E|--8-----------------------6-----------------------------------------------------------------------|
      We fall down on what we want
E|--------------------------------------------------------------------------------------------------|
B|--------------------------------------------------------------------------------------------------|
G|--------5-----------------------5-----5-----------------------------------------------------------|
D|-----6-----6-----------------6-----6-----6-----6--------------------------------------------------|
A|--------------------------------------------6-----------------------------------------------------|
E|--4-----------------------4-----------------------------------------------------------------------|
      At love, we talk through lines, you made us move
E|--------------------------------------------------------------------------------------------------|
B|--------------------------------------------------------------------------------------------------|
G|--------8-----8-----------------7-----7-----------------------------------------------------------|
D|-----10----10----10----10----8-----8-----8-----8--------------------------------------------------|
A|--------------------10----------------------8-----------------------------------------------------|
E|--8-----------------------6-----------------------------------------------------------------------|
      And just in time, we drift away
E|--------------------------------------------------------------------------------------------------|
B|--------------------------------------------------------------------------------------------------|
G|--------5-----5-----------------5-----5-----------------------------------------------------------|
D|-----6-----6-----6-----6-----6-----6-----6-----6--------------------------------------------------|
A|--------------------6-----------------------6-----------------------------------------------------|
E|--4-----------------------4-----------------------------------------------------------------------|
      Refusing light, refusing time
E|--------------------------------------------------------------------------------------------------|
B|--------------------------------------------------------------------------------------------------|
G|--------8-----8-----------------7-----7-----------------------------------------------------------|
D|-----10----10----10----10----8-----8-----8--------------------------------------------------------|
A|--------------------10----------------------8-----------------------------------------------------|
E|--8-----------------------6-----------------------------------------------------------------------|
      We're growing up, or cascading down...  
E|--------------------------------------------------------------------------------------------------|
B|--------------------------------------------------------------------------------------------------|
G|--------5-----5-----------------5-----5-----------------------------------------------------------|
D|-----6-----6-----6-----6-----6-----6-----6-----6--------------------------------------------------|
A|--------------------6-----------------------6-----------------------------------------------------|
E|--4-----------------------4-----------------------------------------------------------------------|
                            Cascading down
E|--------------------------------------------------------------------------------------------------|
B|--------------------------------------------------------------------------------------------------|
G|--------8-----8-----------------7-----7-----------------------------------------------------------|
D|-----10----10----10----10----8-----8-----8-----8--------------------------------------------------|
A|--------------------10----------------------8-----------------------------------------------------|
E|--8-----------------------6-----------------------------------------------------------------------|
                            I'm hurting now
E|--------------------------------------------------------------------------------------------------|
B|--------------------------------------------------------------------------------------------------|
G|--------5-----5-----------------5-----5-----------------------------------------------------------|
D|-----6-----6-----6-----6-----6-----6-----6-----6--------------------------------------------------|
A|--------------------6-----------------------6-----------------------------------------------------|
E|--4-----------------------4-----------------------------------------------------------------------|

E|--------------------------------------------------------------------------------------------------|
B|--------------------------------------------------------------------------------------------------|
G|--------8-----8-----------------7-----7-----------------------------------------------------------|
D|-----10----10----10----10----8-----8-----8-----8--------------------------------------------------|
A|--------------------10----------------------8-----------------------------------------------------|
E|--8-----------------------6-----------------------------------------------------------------------|
      But change comes slow
E|--------------------------------------------------------------------------------------------------|
B|--------------------------------------------------------------------------------------------------|
G|--------5-----5-----------------5-----5-----------------------------------------------------------|
D|-----6-----6-----6-----6-----6-----6-----6-----6--------------------------------------------------|
A|--------------------6-----------------------6-----------------------------------------------------|
E|--4-----------------------4-----------------------------------------------------------------------|
      If you hate what's in your head, the fuck won't you speak your mind?
E|--------------------------------------------------------------------------------------------------|
B|--------------------------------------------------------------------------------------------------|
G|--------8-----8-----------------7-----7-----------------------------------------------------------|
D|-----10----10----10----10----8-----8-----8-----8--------------------------------------------------|
A|--------------------10----------------------8-----------------------------------------------------|
E|--8-----------------------6-----------------------------------------------------------------------|
                            In search of lost time
E|--------------------------------------------------------------------------------------------------|
B|--------------------------------------------------------------------------------------------------|
G|--------1-----1-----------------1-----1-----------------3-----3-----------------------------------|
D|-----3-----3-----3-----3-----3-----3-----3-----3-----5-----5-----5-----5--------------------------|
A|--------------------3-----------------------3-----------------------5-----------------------------|
E|--1-----------------------1-----------------------3-----------------------------------------------|
                            'Cause 21 is so young and I'm stupid
E|--------------------------------------------------------------------------------------------------|
B|--------------------------------------------------------------------------------------------------|
G|--------3-----3-----------------------5-----5-----------------------------------------------------|
D|-----5-----5-----------5-----5-----6-----6-----6-----6--------------------------------------------|
A|-----------------5--------5-----------------------6-----------------------------------------------|
E|--3-----------------------------4-----------------------------------------------------------------|
      Only 16, yeah I think you shouldn't
E|--------------------------------------------------------------------------------------------------|
B|--------------------------------------------------------------------------------------------------|
G|--------5-----5-----------------8-----8-----------------------------------------------------------|
D|-----6-----6-----6-----6-----10----10----10----10-------------------------------------------------|
A|--------------------6-----------------------10----------------------------------------------------|
E|--4-----------------------8-----------------------------------------------------------------------|
      I think you fucked me up
E|--------------------------------------------------------------------------------------------------|
B|--------------------------------------------------------------------------------------------------|
G|--------5-----5-----------------5-----5-----------------------------------------------------------|
D|-----6-----6-----6-----6-----6-----6-----6-----6--------------------------------------------------|
A|--------------------6-----------------------6-----------------------------------------------------|
E|--4-----------------------4-----------------------------------------------------------------------|
                                  I think,
E|--------------------------------------------------------------------------------------------------|
B|--------------------------------------------------------------------------------------------------|
G|--------8-----8-----------------7-----7-----------------------------------------------------------|
D|-----10----10----10----10----8-----8-----8-----8--------------------------------------------------|
A|--------------------10----------------------8-----------------------------------------------------|
E|--8-----------------------6-----------------------------------------------------------------------|
                                  I think you fucked me up
E|--------------------------------------------------------------------------------------------------|
B|--------------------------------------------------------------------------------------------------|
G|--------5-----5-----------------5-----5-----------------------------------------------------------|
D|-----6-----6-----6-----6-----6-----6-----6-----6--------------------------------------------------|
A|--------------------6-----------------------6-----------------------------------------------------|
E|--4-----------------------4-----------------------------------------------------------------------|
                            And I have nothing to say to you
E|--------------------------------------------------------------------------------------------------|
B|--------------------------------------------------------------------------------------------------|
G|--------8-----8-----------------7-----7-----------------------------------------------------------|
D|-----10----10----10----10----8-----8-----8-----8--------------------------------------------------|
A|--------------------10----------------------8-----------------------------------------------------|
E|--8-----------------------6-----------------------------------------------------------------------|

E|--------------------------------------------------------------------------------------------------|
B|--------------------------------------------------------------------------------------------------|
G|--------5-----5-----------------5-----5-----------------------------------------------------------|
D|-----6-----6-----6-----6-----6-----6-----6-----6--------------------------------------------------|
A|--------------------6-----------------------6-----------------------------------------------------|
E|--4-----------------------4-----------------------------------------------------------------------|

E|--------------------------------------------------------------------------------------------------|
B|--------------------------------------------------------------------------------------------------|
G|--------5-----------------------5-----------------------------------------------------------------|
D|--------------6-----------6-----------6-----------------------------------------------------------|
A|--------------------------------------------------------------------------------------------------|
E|--4-----------------4-----------------------4-----------------------------------------------------|

[Outro]

      It's been a few years and I've moved on
E|--------------------------------------------------------------------------------------------------|
B|--16----------------11----------------------8-----------------------------------------------------|
G|--------------------------------------------------------------------------------------------------|
D|--------------------------------------------------------------------------------------------------|
A|--15----------------10----------------------6-----------------------------------------------------|
E|--------------------------------------------------------------------------------------------------|
      Couldn't make it disappear, oh I tried so hard to be strong
E|--------------------------------------------------------------------------------------------------|
B|--9--------------------8-----------------3--------------------------------------------------------|
G|--------------------------------------------------------------------------------------------------|
D|--------------------------------------------------------------------------------------------------|
A|--8--------------------6-----------------1--------------------------------------------------------|
E|--------------------------------------------------------------------------------------------------|
      But I grew up today and faced that I'm not just lonely
E|--------------------------------------------------------------------------------------------------|
B|--------------------------------------------------------------------------------------------------|
G|-----------------5-----------7--------------13----------------------------------------------------|
D|--------------------------------------------------------------------------------------------------|
A|--------------------------------------------------------------------------------------------------|
E|-----------------4-----------6--------------13----------------------------------------------------|
      Don't feel much better but I guess that it's the start
E|--------------------------------------------------------------------------------------------------|
B|--------------------------------------------------------------------------------------------------|
G|--12----------------5--------------8-----------------7--------------------------------------------|
D|--------------------------------------------------------------------------------------------------|
A|--------------------------------------------------------------------------------------------------|
E|--11----------------4--------------8-----------------6--------------------------------------------|

tabs and chords, guitar tabs, music contests, music covers, songsterr, reverbnation, renditions, tabulature, bollywood chords, ultimate guitar, yousician, guitar lessons, torrins, fender, gibson, acoustic guitar, electric guitar, youtube covers, gootar, guitar tuner, A-Z tabs, 911 tabs