Guitar Tabs for Xmas Song Danny

(/) Slide Up  (\) Slide Down  (h) Hammer On  (p) Pull Off  (b) Bend (r) Release (v) Vibrato

Tabs for Song : 

Song lyrics here
E|--------11----10-8--------6-----6-----6--------
B|--------9-----------11-9--8-----------8--------
G|--8-----10----------------7--------------------
D|--5-----------------------8-----------8--------
A|--6-----------------------6-----------6--------
E|--------------------------6-----------6--------

E|--4-----8--------------------------------------------------6--8--10-8--
B|--4-----9--11-9--8--------------------------6--------6--8--------8-----
G|--5-----10----------10-8-----------8--7--8--7-----8-----7--------9-----
D|--6--------------------5-----------5--------6-----------8--------7-----
A|--6--------------------6-----------6-----------------------------------
E|--4--------------------------------------------------------------------

E|-----------10----------------10-------------
B|-12--12-13----12-10-13----------13-12-10----
G|-11-----------------11-------------------12-
D|-12-----------------12-------------------9--
A|-10--------------------------------------10-
E|--------------------------------------------

Song lyrics here
E|--
B|--
G|--
D|--
A|--
E|--

Add more lines by placing cursor below and adding notes
tabs and chords, guitar tabs, music transcription, music technology, deep learning, music information retrieval, transcribe into tabs & chords, chordify, music renditions, songsterr, reverbnation, tabulature, bollywood chords, ultimate guitar, yousician, guitar lessons, acoustic guitar, electric guitar, guitar tuner, 911 tabs