Danny - Guitar Tabs

(/) Slide Up  (\) Slide Down  (h) Hammer On  (p) Pull Off  (b) Bend (r) Release (v) Vibrato (x) Muted

Tabs for Song : 
BPM : 200

Song lyrics here 
E|--------------------------------------------------------
B|--------------------------------------------------------
G|-----------------------2--0-----------------------------
D|--------0--2-----0--2--------2--0-----------------2--3--
A|--2--3-----------------------------3--0--------3--------
E|--------------------------------------------------------

E|-----------------------------------------------------------
B|-----------------------------------------------------------
G|--0-----2--0-----------------------------------------2--0--
D|--------------2-----2--0--------------0---2-----0--2--------
A|-----------------3--------------2--3----------------------
E|-----------------------------------------------------------

E|--------------------------------------------------------------------
B|--------------------------------------------------------------------
G|--------------------------------------------------------------2-----
D|--2--------0-----------------0--2-----3--2--0-----0--------0--------
A|--------------3--0-----2--3--------------------3-----3--------------
E|--------------------------------------------------------------------

E|-----------------------------------------------------------------------
B|--0--1--0--0-----------------------------0--1-----0--0-----------------
G|--------------2--0--2--0-----------0--2--------------------2--0--------
D|--------------------------2-----------------------------------------2--
A|-----------------------------3-----------------------------------------
E|-----------------------------------------------------------------------

E|--------------0-----------------------------------------------
B|-----------------3-----3--0-----0-----------------------------
G|-----0--0--0-----------------2-----0-----------------------2--
D|--0-----------------------------------2--------------0--2-----
A|-----------------------------------------3-----2--3-----------
E|--------------------------------------------------------------

E|-----------------------------
B|-----------------------------
G|--0--------------------------
D|-----2--0--------------------
A|-----------3--0--2--3--------
E|-----------------------------

E|-----------------------------------------
B|-----------------------------------------
G|------------------------2--0--------------
D|-----------0--2--0--2--------2--0--------
A|--2--3-----------------------------3--0--
E|-----------------------------------------

E|-----------------------------------------------------------
B|-----------------------------------------------------------
G|-----------0--2--0-----------------------------------------
D|-----2--3-----------2-----2--0--------0--2--3--2--0-----0--
A|--3--------------------3--------2--3-----------------3-----
E|-----------------------------------------------------------

E|-----------------------------------------------------------
B|-----------0--1--0--0--------------------------0--1--0--0--
G|-----0--2--------------2--0--2--0--------0--2--------------
D|-----------------------------------2-----------------------
A|--3-----------------------------------3--------------------
E|-----------------------------------------------------------

E|-----------------------0-----------------------------------
B|--------------------------3--3--1-----1--------------------
G|--2--0--------0--0--0--------------2-----0-----------------
D|--------2--0--------------------------------2-----------0--
A|-----------------------------------------------3--2--3-----
E|-----------------------------------------------------------

E|--------------------------0--
B|--------------------------1--
G|-----2--0-----------------0--
D|--2--------2--0-----------2--
A|-----------------3--0--2--3--
E|-----------------------------

E|-----
B|-----
G|-----
D|-----
A|-----
E|-----

Song lyrics here 
E|--
B|--
G|--
D|--
A|--
E|--

Use manual mode to free up cursor. Paste any tab in acousterr tab maker and we'll play it !!!
tabs and chords, guitar tabs, music transcription, music technology, deep learning, music information retrieval, transcribe into tabs & chords, chordify, music renditions, songsterr, reverbnation, tabulature, bollywood chords, ultimate guitar, yousician, guitar lessons, acoustic guitar, electric guitar, guitar tuner, 911 tabs