Guitar Tabs for Woym Chords And Guitar Tab

(/) Slide Up  (\) Slide Down  (h) Hammer On  (p) Pull Off  (b) Bend (r) Release (v) Vibrato (x) Muted

Tabs for Song : 
BPM : 200

Chords used throughout that this program doesn't just have available 
E|--0--------0-----------------------------------0--------------------------------------
B|--0--------0-----------------------------------0--------------------------------------
G|--6--------6-----------------6--------2--------1--------6--------4--------6--------9--
D|--7--------0--------2--------5--------1--------2--------7--------2--------4--------7--
A|--7--------0--------4--------7--------2--------2--------5--------4--------5--------9--
E|--5--------5--------2--------5-----------------0--------7-----------------------------
   Amaj    Bm9/11    F#m9     A7       B7       Emaj     Bm9      C#m7     Dmaj7      F#m7
 

Assorted Riffs

the keyboard part, as played by twin lead guitars
owen (the part in your right speaker)
E|-----------------------------------------------------------------------------
B|-----------------------------------------------------------------------------
G|--9-----------------6--------------------------------------9-----------------
D|--------------------------------------9-----7--------9-----------------------
A|-----------------------------------------------------------------------------
E|-----------------------------------------------------------------------------
Storm (the part in the left speaker)(I'll send you a video with an idea for this part not to be boring)
E|-----------------------------------------------------------------------------
B|-----------------------------------------------------10----10----10----10----
G|--6-----------------------------------------6-----11----9-----9-----9-----9--
D|--------------------9-----7--------------------------------------------------
A|-----------------------------------------------------------------------------
E|-----------------------------------------------------------------------------








riff at :40

E|--7--------------5--4--------------2--0--------2--4--2--4--5--4--5--7--
B|-----------------------------------------------------------------------
G|-----------------------------------------------------------------------
D|-----------------------------------------------------------------------
A|-----------------------------------------------------------------------
E|-----------------------------------------------------------------------




the twin lead at like 1:50

Owen"s half
E|--------------------------------------------------------------------------------------------------------
B|--5--5-----------5--5-----------5--5-----------------5--5-----------5--5-----------5--5-----------------
G|--------6--4-----------6--4-----------6--4-----4-----------6--4-----------6--4-----------6--4-----4--6--
D|--------------7--------------7--------------7--------------------7--------------7--------------7--------
A|--------------------------------------------------------------------------------------------------------
E|--------------------------------------------------------------------------------------------------------

Storm's half, comes in halfway through owen's

E|--4--4-----------4--4-----------4--4-----------------
B|--------5--3-----------5--3-----------5--3-----3--7--
G|--------------6--------------6--------------6--------
D|-----------------------------------------------------
A|-----------------------------------------------------
E|-----------------------------------------------------








Lyrics and Chords


(A)                         (F#m9)
Buying contraception in the middle of the day 
           (A7)
And I’m so scared of what the counter boy is 
(F#m9)
Gonna say to me I
(B7)                            (E)
Didn’t get on board with this until I was a college kid
(B7)             (E)
Pad the bag with mouthwash and then split 


(Bm9)                       (C#m)
Feel like my anxiety’s been stuck on mute 
(Dmaj7)                                 (E7)
Re/Wii mote placed strategically all the way across the room 


(A)
And it’s fine you say 
(Bm)
Nobody's always okay

(C#m) (Dmaj7)

(A)
And it’s fine you say 
(Bm)
Nobody always feels great 

(C#m) (Dmaj7) (E7)


(A)                                (F#m9)
Smoking weed with Teague before we all play dnd and I’m so 
(A7)                                (F#m9)
Scared you think that this is just a game to me
(B7)                           (E)
I haven’t figured out my character or his past just yet
(B7)                (E)
But when I say I’m staying that’s a safe bet


(Bm9)                       (C#m)
Maybe playin hexblade it just ain’t for me
(Dmaj7)                                 (E7)
Secrets and dark sorcery don’t fit this party’s needs


(A)
And it’s fine you say 
(Bm)
Nobody's always okay


(C#m) (Dmaj7) 

(A)
And it’s fine you say
              (Bm)
Sometimes the dice just don’t roll your way 
(C#m) (Dmaj7) (E7)

(F#m7)         (E7)         (C#m7)         (Dmaj7)
I wanna be bigger than the things that piss me off
(F#m7)          (E7)         (C#m7)            (Dmaj7)
Do something spectacular with all the time I’ve lost
(B5)                           (C#m)                     
Carry all these burdens like a heart within my chest 
(Dmaj7)                      (E7)
To then be organ donated the moment of my death 



Buying contraception in the middle of the night and I’m so scared I just can’t do any of this shit right

You’re keeping up a streak of sweeping me off of my feet but whenever I fall down you say it’s sweet 



Use manual mode to free up cursor. Paste any tab in acousterr tab maker and we'll play it !!!
tabs and chords, guitar tabs, music transcription, music technology, deep learning, music information retrieval, transcribe into tabs & chords, chordify, music renditions, songsterr, reverbnation, tabulature, bollywood chords, ultimate guitar, yousician, guitar lessons, acoustic guitar, electric guitar, guitar tuner, 911 tabs