Guitar Tabs for Chords

chords:

   E     A     C     D     G     F
E|--0-----------------2-----3-----------
B|--0-----2-----1-----3-----3-----1-----
G|--1-----2-----0-----2-----0-----2-----
D|--2-----2-----2-----0-----0-----3-----
A|--2-----0-----3-----------2-----3-----
E|--0-----------------------3-----------

    EM    AM    CM    DM    GM   FM 
E|--0-----------3-----1-----3-----1-----
B|--0-----1-----4-----3-----3-----1-----
G|--0-----2-----5-----2-----3-----1-----
D|--2-----2-----5-----0-----5-----3-----
A|--2-----0-----------------------------
E|--0-----------------------------------

   E7    A7    C7    D7    G7
E|--0-----------------2-----1-----------
B|--0-----2-----1-----1-----0-----------
G|--1-----0-----3-----2-----0-----------
D|--0-----2-----2-----0-----0-----------
A|--2-----0-----3-----------2-----------
E|--0-----------------------3-----------

POWER CHORDS/ OCTAVES:

E|--------------------------------------
B|--------------------------------------
G|--------------------------------------
D|--5-----5-----------------------------
A|--5-----------------------------------
E|--3-----3-----------------------------

BARRE CHORDS: 
    MAJ   MIN  MAJ   MIN
E|--3-----3-----------3-----------------
B|--3-----3-----5-----4-----------------
G|--4-----3-----5-----5-----------------
D|--5-----5-----5-----5-----------------
A|--5-----5-----3-----3-----------------
E|--3-----3-----------------------------





tabs and chords, guitar tabs, music transcription, music technology, deep learning, music information retrieval, transcribe into tabs & chords, chordify, music renditions, songsterr, reverbnation, tabulature, bollywood chords, ultimate guitar, yousician, guitar lessons, acoustic guitar, electric guitar, guitar tuner, 911 tabs