Bass Tabs for Won't Stand In Your Way

Wont Stand In Your Way
BPM : 200

intro
G|--------------------------------------------------------
D|--------------------------------------------------------
A|-----0--2--3--------3--0--------0-----------------------
E|--3--------------------------------4-----4-----4-----3--

v1
G|-----------------------------------------------------------------
D|-----2--5-----------2--5--7--5--2--------------------------------
A|--3--------------3-----------------------3-----------3--5--3-----
E|-----------------------------------1--5--------1--4-----------4--

G|--------------------------------------------------------------------------------------------
D|--------------------------------------------------------------------------------------------
A|--3--------3--2--------2--0--------0--------------------------5-----------------------------
E|--------------------------------------3--------3--1--------1-----------4-----4-----4-----3--


v2
G|--------------------------------------------------------------------
D|-----2--5-----------2--5-----7--5--2--------------------------------
A|--3--------------3--------------------------3-----------3--5--3-----
E|--------------------------------------1--5--------1--4-----------4--

G|--------------------------------------------------------------------------------------------------
D|--------------------------------------------------------------------------------------------------
A|--3-----------3--2--------2--0--------0-----------------------------------3-----------------------
E|-----------------------------------------3--------3--1--------1--3-----3--------3--3--3--3--3--3--


bridge
G|-----------------------------------------------------------------------------------------------------
D|-----------------------------------------------------------------------------------------------------
A|--------------------------------------------------------------------------3--------------3--1--0-----
E|--1--1--1--1--------1--1--1--1--------1--1--1--1--------1--1--1--1--------------1-----1-----------3--

G|-----------------------------------------------------------------------------------------------------------------
D|-----------------------------------------------------------------------------------------------------------------
A|-----------------------------------------------------------------------------------5-----------------------------
E|--5--5--5--5--------5--5--5--5--------5--5--5--5--------5--5--5--5--------1-----1-----------4-----4-----4-----3--


v3
G|--------------------------------------------------------------------
D|-----2--5-----------2--5-----7--5--2--------------------------------
A|--3--------------3--------------------------3-----------3--5--3-----
E|--------------------------------------1--5--------1--4-----------4--

G|-----------------------------------------------------------------------------------------------------
D|-----------------------------------------------------------------------------------------------------
A|--3--------3--2--------2--0--------0--------------------------------------3--------------------------
E|--------------------------------------3--------3--1--------1--3--------3-----------3--3--3--3--3--3--

solo
G|-----------------------------------------------------------------
D|-----2--5-----------2--5--7--5--2--------------------------------
A|--3--------------3-----------------------3-----------3--5--3-----
E|-----------------------------------1--5--------1--4-----------4--

G|-----------------------------------------------------------------------------------------------------------------------
D|-----------------------------------------------------------------------------------------------------------------------
A|--3--------3--2--------2--0--------0--------------------------------------3-----------------3--------------------------
E|--------------------------------------3--------3--1--------1--3--------3-----------1-----------------3--3--3--3--3--3--


bridge
G|-----------------------------------------------------------------------------------------------------
D|-----------------------------------------------------------------------------------------------------
A|--------------------------------------------------------------------------3--------------3--1--0-----
E|--1--1--1--1--------1--1--1--1--------1--1--1--1--------1--1--1--1--------------1-----1-----------3--

G|-----------------------------------------------------------------------------------------------------------------
D|-----------------------------------------------------------------------------------------------------------------
A|-----------------------------------------------------------------------------------5-----------------------------
E|--5--5--5--5--------5--5--5--5--------5--5--5--5--------5--5--5--5--------1-----1-----------4-----4-----4-----3--



v4+outro
G|--------------------------------------------------------------------
D|-----2--5-----------2--5-----7--5--2--------------------------------
A|--3--------------3--------------------------3-----------3--5--3-----
E|--------------------------------------1--5--------1--4-----------4--

G|-----------------------------------------------------------------------
D|-----------------------------------------------------------------------
A|--3--------3--2--------2--0--------0-----------------------------------
E|--------------------------------------3--------3--1--------1--3--------

G|--------------------------------------------------------------------------
D|--------------------------------------------------------------------------
A|-----3-----2-----0-----------------------------------------3-----------3--
E|--3--------------------3-----1-----1-----1-----1-----------------1--------
tabs and chords, guitar tabs, music transcription, music technology, deep learning, music information retrieval, transcribe into tabs & chords, chordify, music renditions, songsterr, reverbnation, tabulature, bollywood chords, ultimate guitar, yousician, guitar lessons, acoustic guitar, electric guitar, guitar tuner, 911 tabs