Bass Tabs for Won't Stand In Your Way

(/) Slide Up  (\) Slide Down  (h) Hammer On  (p) Pull Off  (b) Bend (r) Release (v) Vibrato (x) Muted

Tabs for Song : 
BPM : 200




G|--------------------------------------------------------------------------
D|--------------------------------------------------------------------------
A|-----0--2--3--------------3--0--------------0-----------------------------
E|--3--------------------------------------------4-----4-----4-----3--------



G|--------------------------------------------------------------------------------
D|-----------2--5-----------2--5-----7--5--2--------------------------------------
A|--3-----------------3-----------------------------------3--------------------3--
E|--------------------------------------------1--------5-----------1--------4-----

G|---------------------------------------------------------------------------------------------------------------
D|--------------------------------------------------------------------------------------------------------------------
A|-----5--3-----3--------3--2-----------2--0--------0-----------------------------5-----------5-----------------------
E|-----------4-----------------------------------------3--------3--1-----------1-----------------4-----4-----4-----3--



G|--------------------------------------------------------------------------------------------------------------------------------------------------------------------------------------------------------
D|-----------2--5-----------2--5-----7--5--2--------------------------------------------------------------------------------------------------------------------------------------------------------------
A|--3-----------------3--------------------------------------3--------------------------3-----5--3-----3-----------3--2--------------2--0-----------0--------------------------------------3--------------
E|--------------------------------------------1-----------5--------------1-----------4--------------4--------------------------------------------------3-----------3--1--------3-----------------------3--



G|--------------------------------------------------------------------------------------------------------------------------------------------------------------------------------------------------------------------------------
D|--------------------------------------------------------------------------------------------------------------------------------------------------------------------------------------------------------------------------------
A|-----------------------------------------------------------------------------3-----------------3--1--0--------------------------------------------------------------------------------------5-----------5-----------------------
E|--1--1--1--1--------1--1--1--1--------1--1--1--1--------1--1--1--1--------------------1-----------------3--5--5--5--5--------5--5--5--5--------5--5--5--5--------5--5--5--5-----1--------1-----------------4-----4-----4-----3--












G|--------------------------------------------------------------------------------------------------------------------------------------------------------------------------------------------------------------------------
D|-----------2--5-----------2--5-----7--5--2--------------------------------------------------------------------------------------------------------------------------------------------------------------------------------
A|--3-----------------3--------------------------------------3--------------------------3-----5--3-----3-----------3--2--------------2--0-----------0--------------------------------------3--------------------3-----------
E|--------------------------------------------1-----------5--------------1-----------4--------------4--------------------------------------------------3-----------3--1--------3-----------------------1-----------------3--





G|--------------------------------------------------------------------------------------------------------------------------------------------------------------------------------------------------------------------------------------------------------------
D|-----------2--5-----------2--5-----7--5--2--------------------------------------------------------------------------------------------------------------------------------------------------------------------------------------------------------------------
A|--3-----------------3--------------------------------------3--------------------------3-----5--3-----3-----------3--2--------------2--0-----------0--------------------------------------3-----2-----0-----------------------------------3-----------------3--
E|--------------------------------------------1-----------5--------------1-----------4--------------4--------------------------------------------------3-----------3--1--------3-----------------------------3-----1-----1-----1-----1--------------1-----------
tabs and chords, guitar tabs, music transcription, music technology, deep learning, music information retrieval, transcribe into tabs & chords, chordify, music renditions, songsterr, reverbnation, tabulature, bollywood chords, ultimate guitar, yousician, guitar lessons, acoustic guitar, electric guitar, guitar tuner, 911 tabs