Wonderwall - Bass Tabs

(/) Slide Up  (\) Slide Down  (h) Hammer On  (p) Pull Off  (b) Bend (r) Release (v) Vibrato (x) Muted

Tabs for Song : Wonderwall
BPM : 88

Verse:
G|--------------------------------------------------------------------
D|--------------------------------------------------------------------
A|--------------0--0--0--0-----0--------------0--2--2--2--0--2--0-----
E|--2--2--2--2--------------------0--0--0-----------------------------

Pre-chorus:
G|---------------------------------------------------------
D|--------------------------------------------------------
A|--5--5--5--5--7--7--7--7--7--9--9--9--7--9--9--7--9--9--
E|--------------------------------------------------------

G|--------------------------------------------------------
D|--------------------------------------------------------
A|--5--5--5--5--7--7--7--7--7-----------------------------
E|-----------------------------2--2--2--0--2--2--0--2--2--

G|--------------------------------------------------
D|-----------------------------7-----6-----4-----7--
A|--5--5--5--5--7--7--7--7--7-----------------------
E|--------------------------------------------------

G|-----------------------------------------------------------
D|-----------------------------------------------------------
A|-----------------------------------------------------------
E|--2--2--2--0--2--2--0--2--2--0--2--0--2--0--2--2--0--2--2--

Chorus:
G|-----------------------------------------------------------------
D|-----------------------------------------------------------------
A|--5--5--5--5--7--9--9--7--9--9-----0--0--0--0--7--9--9--7--9--9--
E|-----------------------------------------------------------------
    
Verse:
G|--------------------------------------------------------------------
D|--------------------------------------------------------------------
A|--------------0--0--0--0-----0-----------------0--2--2--2--0--2--0--
E|--2--2--2--2--------------------0--0--0--0--------------------------

Pre-chorus:
G|--------------------------------------------------------
D|--------------------------------------------------------
A|--5--5--5--5--7--7--7--7--7--9--9--9--7--9--9--7--9--9--
E|--------------------------------------------------------

G|--------------------------------------------------------
D|--------------------------------------------------------
A|--5--5--5--5--7--7--7--7--7-----------------------------
E|-----------------------------2--2--2--0--2--2--0--2--2--

G|--------------------------------------------------
D|-----------------------------7-----6-----4-----7--
A|--5--5--5--5--7--7--7--7--7-----------------------
E|--------------------------------------------------

Chorus:
G|--------------------------------------------------------------
D|--------------------------------------------------------------
A|--5--5--5--5--7--9--9--7--9--9-----0--0--0--7--9--9--7--9--9--
E|--------------------------------------------------------------

Use manual mode to free up cursor. Paste any tab in acousterr tab maker and we'll play it !!!



About Wonderwall (song) : The song was produced by Noel Gallagher and Owen Morris for the band's second studio album (What's the Story) Morning Glory? (1995) According to Gallagher, "Wonderwall" describes an imaginary friend who's gonna come and The song was released as the third single from the album in October 1995 . The song reached the top ten on another ten charts, including Canada and the United States . The single was certified quadruple platinum by the British Phonographic Industry and gold by the Recording Industry Association of America . Many notable artists have also covered the song . It was voted No. 1 on the Australian alternative music radio station Triple J's "20 Years of the Hottest 100" in 2013 . It was released in 1995. It was released as part of album (What's the Story) Morning Glory?. The genre is britpop. The track was release in 1995. Wonderwall (song) has a significant contribution from artist(s) Noel Gallagher,Owen Morris. It is related to the album(s) - What's the Story. The track has an affiliation to the band(s) - Oasis.

About Oasis (band) : Liam Gallagher, Paul Arthurs, Paul McGuigan and Tony McCarroll joined in 1991 . Noel Gallagher joined as a fifth member of the band . Liam's older brother Noel joined the line-up . Oasis signed to Creation Records in 1993 and released their debut album Definitely Maybe . The following year the band recorded (What's the Story) Morning Glory? with drummer Alan White . GuGuigan and Arthurs left Oasis in 1999 as the band released Standing on the Shoulder of Giants (2000) They were replaced by former Heavy Stereo guitarist/frontman Gem Archer and former Ride guitarist Andy Bell . Oasis (band) The group has many notable artists like Liam Gallagher,Paul Arthurs,Paul McGuigan,Tony McCarroll,Noel Gallagher. Their music is influenced by genres - rock britpop.

About (What's the Story) Morning Glory? : The structure and arrangement style of the album were a significant departure from the group's previous album Definitely Maybe (1994) Released on 2 October 1995 by Creation Records . It was produced by Owen Morris and Noel Gallagher . Morning Glory sold a record-breaking 345,000 copies in its first week . The record propelled Oasis from being a crossover indie act to a worldwide rock phenomenon . Morning Glory spent 10 weeks at the UK Albums Chart . At the 1996 Brit Awards, the album won Best British Album . Over several months in 1995 and 1996, the band performed an extensive world tour . Among the most notable of these concerts were back-to-back nights at Earls Court in London in November 1995 . (What's the Story) Morning Glory?'s most popular songs include What's the Story) Morning Glory?. It had a contribution from notable artists like Owen Morris,Noel Gallagher. It had an affiliation to bands - Oasis. Its music is influenced by genres - rock britpop.

tabs and chords, guitar tabs, music transcription, music technology, deep learning, music information retrieval, transcribe into tabs & chords, chordify, music renditions, songsterr, reverbnation, tabulature, bollywood chords, ultimate guitar, yousician, guitar lessons, acoustic guitar, electric guitar, guitar tuner, 911 tabs