Bass Tabs for Oasis - Wonderwall

BASS TAB
Oasis - Wonderwall (in E)

2nd Verse
G|--------------------------
D|--------------------------  4x
A|--------------5-----------
E|--0-----3-----------5-----

Pre-Chorus
G|-----------------------------------------------------------------
D|-----------------------------------------------------------------
A|--3-----5-----------3-----5-----------3-----5--------------------
E|--------------0-----------------0-----------------3--2--0--3--5--

Chorus
G|--------------------------------------------------------------------------------------------------
D|--------------------------------------------------------------------------------------------------
A|--3-----------------------3-----------------------3-----------------------3-----------------------
E|--------0-----3-----0-----------0-----3-----0-----------0-----3-----0-----------0-----3-----0-----

Ending
G|-----------------------
D|-----------------------  4x
A|--3-------------------- 
E|--------0-----3-----0--
tabs and chords, guitar tabs, music transcription, music technology, deep learning, music information retrieval, transcribe into tabs & chords, chordify, music renditions, songsterr, reverbnation, tabulature, bollywood chords, ultimate guitar, yousician, guitar lessons, acoustic guitar, electric guitar, guitar tuner, 911 tabs