Guitar Tabs for Woh Humsafar Tha Ost - Guitar Tabs By Musical G

(/) Slide Up  (\) Slide Down  (h) Hammer On  (p) Pull Off  (b) Bend (r) Release (v) Vibrato (x) Muted

Tabs for Song : Woh Humsafar Tha  
BPM : 200

Song lyrics : Tark-e-taaluqat pe..roya na tu na main
E|--------------------------------------------------------------------------------------------------
B|---8/6-----8---8/9-----9--9-----8--11/-9/-8/6------------6/4------6/8-----8--8--------9------8/9--
G|--------------------------------------------------------------------------------------------------
D|--------------------------------------------------------------------------------------------------
A|--------------------------------------------------------------------------------------------------
E|--------------------------------------------------------------------------------------------------

Song lyrics Lekin Yeh Kya Ke Chain Se 
E|-----------6-----6-----6--6------------8/6--------------------------
B|--------------------------------9-----------9-----9------8/9--------
G|--------------------------------------------------------------------
D|--------------------------------------------------------------------
A|--------------------------------------------------------------------
E|--------------------------------------------------------------------
Soya Na Tu Na Main..
E|-----------------------------------------
B|---8/6------8/9-----9--9-----8--9--------
G|-----------------------------------------
D|-----------------------------------------
A|-----------------------------------------
E|-----------------------------------------
Woh Humsafar Tha..Haan.. Woh Humsafar Tha..Haan...
E|--------------------------------------------------------------------------------------
B|--------4-----4-----6-----6------------8/6-----6--8-----8--9-----9------------8/6-----
G|-----6--------------------------------------------------------------------------------
D|--------------------------------------------------------------------------------------
A|--------------------------------------------------------------------------------------
E|--------------------------------------------------------------------------------------
Woh Humsafar Tha..Magar Us Se...
E|--------------------------------------------------------------------------
B|--------4-----4-----6-----6-----------6---6/11/9------6/4-----4--4--------
G|-----6--------------------------------------------------------------------
D|--------------------------------------------------------------------------
A|--------------------------------------------------------------------------
E|--------------------------------------------------------------------------
Humnawaayi Na Thi
E|--------------------------------------------------------------
B|-----4-----4------6/-8/-9/8------6/4-----4------6/4-----------
G|--------------------------------------------------------6-----
D|--------------------------------------------------------------
A|--------------------------------------------------------------
E|--------------------------------------------------------------
Keh Dhoop Chaaon Ka...
E|-----8-----6-----------6--------------------------------------------
B|--6------------9/8--------9-----8-----6--6-----8---6/8------6/4-----
G|--------------------------------------------------------------------
D|--------------------------------------------------------------------
A|--------------------------------------------------------------------
E|--------------------------------------------------------------------
Keh Dhoop Chaaon Ka Aalam Raha,
E|--------8-----6-----------6--------------------------------------------------------------
B|-----6------------9/8--------9-----8--------6--6------6/8------6/8-----6--4--------4--4--
G|-----------------------------------------------------------------------------------------
D|-----------------------------------------------------------------------------------------
A|-----------------------------------------------------------------------------------------
E|-----------------------------------------------------------------------------------------
Judaai Na Thi...
E|--------6--------6------6/4-----6-----8--------
B|-----4-----------------------------------------
G|-----------------------------------------------
D|-----------------------------------------------
A|-----------------------------------------------
E|-----------------------------------------------
Woh Humsafar Tha Magar Us Se Humnawaayi Na Thi
E|-----------------------------------------------------------------------------------------------------------
B|-----4-----4--6-----6-----6---6/11/9-----6-----4--4--------4-----4---6/-8/-9/8------6/4-----4---6/4--------
G|--6--------------------------------------------------------------------------------------------------6-----
D|-----------------------------------------------------------------------------------------------------------
A|-----------------------------------------------------------------------------------------------------------
E|-----------------------------------------------------------------------------------------------------------
Ke Dhoop Chaaon Ka...
E|-----8-----6--------------------------------------------------
B|--6---------------9/8-----6-----6--------8---6/8------6/4-----
G|--------------------------------------------------------------
D|--------------------------------------------------------------
A|--------------------------------------------------------------
E|--------------------------------------------------------------
Ke Dhoop Chaaon ka Aalam
E|--------8-----6-----------6--------------------------------------------------------
B|-----6------------9/8-----------9-----8-----6--6------6/8------6/8------6/4--------
G|-----------------------------------------------------------------------------------
D|-----------------------------------------------------------------------------------
A|-----------------------------------------------------------------------------------
E|-----------------------------------------------------------------------------------
Raha, Judaai Na Thi...
E|-----------------6--------6------6/4-----6-----8--------
B|-----4--4-----4-----------------------------------------
G|--------------------------------------------------------
D|--------------------------------------------------------
A|--------------------------------------------------------
E|--------------------------------------------------------
Woh Humsafar Tha.. Haan.. Woh Humsafar Tha...
E|-----------------------------------------------------------------------------
B|--------4-----4--6-----6------------8/6-----9---8/6-----8-----9-----9--------
G|-----6-----------------------------------------------------------------------
D|-----------------------------------------------------------------------------
A|-----------------------------------------------------------------------------
E|-----------------------------------------------------------------------------
Adawatein Thi, Taghaful Tha,
E|--8---6h8---6h8-----6--------------------------------------------------
B|--------------------------9-----9--------9---8/-9h11/8-----8-----8-----
G|-----------------------------------------------------------------------
D|-----------------------------------------------------------------------
A|-----------------------------------------------------------------------
E|-----------------------------------------------------------------------
Ranjishein thi Magar
E|--------------------------------------------------------
B|--8-----8---9/13/11/13--9/8-----11/9------8/-6/9--------
G|--------------------------------------------------------
D|--------------------------------------------------------
A|--------------------------------------------------------
E|--------------------------------------------------------
Adawatein Thi, Taghaful Tha,
E|--8---6h8---6h8-----6--------------------------------------------------
B|--------------------------9-----9--------9---8/-9h11/8-----8-----8-----
G|-----------------------------------------------------------------------
D|-----------------------------------------------------------------------
A|-----------------------------------------------------------------------
E|-----------------------------------------------------------------------
Ranjishein Thi Magar...
E|-----------------------------------------------------------
B|--8-----8---9/13/11/13--9/8-----11/9---------8/-6/9--------
G|-----------------------------------------------------------
D|-----------------------------------------------------------
A|-----------------------------------------------------------
E|-----------------------------------------------------------
Bicharne Wale.. Mein Sab Kuch Tha..
E|--------------------------------------------------------------
B|-----4--4--4--6-----6--------6--6-----11/9---6/4--4--4--------
G|--6-----------------------------------------------------------
D|--------------------------------------------------------------
A|--------------------------------------------------------------
E|--------------------------------------------------------------
Bewafaai na thi...
E|--------------------------------------------------
B|--4-----4------6/-8/-9/8------6/4------6/4--------
G|--------------------------------------------6-----
D|--------------------------------------------------
A|--------------------------------------------------
E|--------------------------------------------------
Bicharne Waale..Mein Sab Kuch Tha..
E|--------------------------------------------------------------
B|-----4--4--4--6-----6--------6--6-----11/9---6/4--4--4--------
G|--6-----------------------------------------------------------
D|--------------------------------------------------------------
A|--------------------------------------------------------------
E|--------------------------------------------------------------
Bewafaai na thi...
E|-----------------------------------------------------------
B|--4-----4---------6/-8/-9/8------6/4------6/4--------------
G|-----------------------------------------------6-----------
D|-----------------------------------------------------------
A|-----------------------------------------------------------
E|-----------------------------------------------------------
Ke Dhoop Chhaao Ka...
E|--------8--6-----------------------------------------------
B|--6---------------9/8-----6--6-----8---6/8------6/4--------
G|-----------------------------------------------------------
D|-----------------------------------------------------------
A|-----------------------------------------------------------
E|-----------------------------------------------------------
Ke Dhoop Chaao Ka   
E|-----8-----6-----------------------------------------------------
B|--6---------------9/8-----6--6------6/8------6/8------6/4--------
G|-----------------------------------------------------------------
D|-----------------------------------------------------------------
A|-----------------------------------------------------------------
E|-----------------------------------------------------------------
Ke Dhoop Chaao Ka Aalam Raha, 
E|-----8-----6--------------------------------------------------------------------------
B|--6---------------9/8-----11/9--8-----6--6------6/8------6/8------6/4-----4--4--------
G|--------------------------------------------------------------------------------------
D|--------------------------------------------------------------------------------------
A|--------------------------------------------------------------------------------------
E|--------------------------------------------------------------------------------------
Judaai Na Thi...
E|-----6--------6---6/4------6/8-----------
B|--4--------------------------------------
G|-----------------------------------------
D|-----------------------------------------
A|-----------------------------------------
E|-----------------------------------------
Woh Humsafar Tha... Wo h Humsafar Tha...
E|-----------------------------------------------------------------------
B|-----4-----4---6/4-----6-----------9--------9---8/6-----8---8/9-----9--
G|--6--------------------------------------------------------------------
D|-----------------------------------------------------------------------
A|-----------------------------------------------------------------------
E|-----------------------------------------------------------------------

Paste any tab in acousterr's tab maker and we'll play it !!!
Now supports capo and sound effects for vibrato/pull-off/hammer/bends/mutes etc !!! Checkout help section
tabs and chords, guitar tabs, music transcription, music technology, deep learning, music information retrieval, transcribe into tabs & chords, chordify, music renditions, songsterr, reverbnation, tabulature, bollywood chords, ultimate guitar, yousician, guitar lessons, acoustic guitar, electric guitar, guitar tuner, 911 tabs