Guitar Tabs for Mere Naam Tu Zero By Musical G

(/) Slide Up  (\) Slide Down  (h) Hammer On  (p) Pull Off  (b) Bend (r) Release (v) Vibrato (x) Muted

Tabs for Song : Mere Naam Tu ZERO 
BPM : 200

Song lyrics Wo Rang Bhi..Kya Rang Hai
E|--------------------------------------------------------------
B|--5-----4--4---5/-4/2-----------5-----4--4---5/-4/2-----------
G|--------------------------------------------------------------
D|--------------------------------------------------------------
A|--------------------------------------------------------------
E|--------------------------------------------------------------

Song lyrics Mita Na Jo Tere Hont Ke Rang Se Hoobahu
E|-----------------------------------------------------------------------------------------------
B|--0-----2------2/4-----0-----0---0/2-----------------------------------------------------------
G|-----------------------------------------2-----2---2/4--1-----1--------------------------------
D|--------------------------------------------------------------------4-----2-----4---4/6--------
A|-----------------------------------------------------------------------------------------------
E|-----------------------------------------------------------------------------------------------
Wo Khushbu..Kya Kushbu..
E|-----------------------------------------------------------------------
B|---4/5-----4--4---5/-4/2------------4/5-----4--4------5/-4/2-----------
G|-----------------------------------------------------------------------
D|-----------------------------------------------------------------------
A|-----------------------------------------------------------------------
E|-----------------------------------------------------------------------
Thehre Na Jo Teri Saawali Zulf Ke Roobaru..
E|-----------------------------------------------------------------------------------------------
B|--0--0--2------2/4-----0--------0---0/2--------2-----------------------------------------------
G|-----------------------------------------2--------4-----1-----1--------------------------------
D|--------------------------------------------------------------------4-----2-----4---4/6--------
A|-----------------------------------------------------------------------------------------------
E|-----------------------------------------------------------------------------------------------
Tere aage ye duniya hai pheeki si
E|-----------------------------------------------------------------------------
B|---------------0/2---0/2--0------0/2---0/2-----0-----------------------------
G|--1-----3---------------------------------------------1/3---1/3-----1--------
D|-----------------------------------------------------------------------------
A|-----------------------------------------------------------------------------
E|-----------------------------------------------------------------------------
Mere bin tu na hogi kisi ki bhi
E|-----------------------------------------------------------------------
B|---------------0/2---0h2-----0---0/2---0/2--0--------------------------
G|--1-----3------------------------------------------1/3---1/3--1--------
D|-----------------------------------------------------------------------
A|-----------------------------------------------------------------------
E|-----------------------------------------------------------------------
Ab ye Zaahir Sare Aam Hai..
E|-----------------------------------------------------------
B|--------------0-----2-----4--2------5/4-----2--------------
G|--1--1--3---------------------------------------4/3--------
D|-----------------------------------------------------------
A|-----------------------------------------------------------
E|-----------------------------------------------------------
Aelaan Hai...
E|-----------------------------------------------------
B|-----------0-----2---1/2------------4/2-----1--------
G|---2/3-----------------------------------------------
D|-----------------------------------------------------
A|-----------------------------------------------------
E|-----------------------------------------------------
Jab Tak Jaha Mein Subha Shaam Hai
E|--------------------------------------------------------------
B|--------------------2-----4-----5---4/5--4--------2-----------
G|--1-----1--1-----1-----------------------------------1--------
D|-----4--------------------------------------------------------
A|--------------------------------------------------------------
E|--------------------------------------------------------------
Tab Tak Mere Naam Tu...
E|-----------------------------------------------------
B|-----------------------------2-----------------------
G|--1-----1--1--------1--4-----------4--3--------------
D|-----4-----------------------------------------------
A|-----------------------------------------------------
E|-----------------------------------------------------
Jab Tak Jaha Mein Mera Naam Hai
E|--------------------------------------------------------------------
B|-----------------------2-----4-----5---4/5-----4-----2--------------
G|--1-----1--1-----1--------------------------------------1-----------
D|-----4--------------------------------------------------------------
A|--------------------------------------------------------------------
E|--------------------------------------------------------------------
Tab Tak Mere Naam Tu...
E|-----------------------------------------------
B|-----------------------------------------------
G|--1--------------1-----------------------------
D|-----4--2--4--------4-----2-----1--------------
A|-----------------------------------4-----------
E|-----------------------------------------------
Uljhan Bhi.. Hun Teri..
E|-----------------------------------------------------
B|--0------2h4-----0-----------0------2h4-----0--------
G|--------------------1--------------------------1-----
D|-----------------------------------------------------
A|-----------------------------------------------------
E|-----------------------------------------------------
Uljhan Ka Hal Bhi Hun Main..
E|-----------------------------------------------------
B|-----------------------------------------------------
G|--------------1-----4--4--4--4------6/4--3-----------
D|--2-----4--------------------------------------------
A|-----------------------------------------------------
E|-----------------------------------------------------
Thora Sa..Ziddi Hun..
E|--------------------------------------------------------
B|--0------2h4-----0-----------0------2h4-----0-----------
G|--------------------1--------------------------1--------
D|--------------------------------------------------------
A|--------------------------------------------------------
E|--------------------------------------------------------
Thora Pagal Bhi Hun Main...
E|--------------------------------------------
B|--------------------------------------------
G|-----------------1-----4--4--4--4-----------
D|---4\2-----4--------------------------------
A|--------------------------------------------
E|--------------------------------------------
Barkha Bijli..Baadal..Jhooth..Jhoothi
E|--------------------------------------------------------------------------
B|--------1-----1--1--2--------1-----2--------1-----2--------4-----5--------
G|--1-----------------------------------------------------------------------
D|--------------------------------------------------------------------------
A|--------------------------------------------------------------------------
E|--------------------------------------------------------------------------
Phoolo Ki Soghaate..
E|-----------------------------------------------------
B|--2------2\7------5\-4\2-----2------4\2-----1--------
G|-----------------------------------------------------
D|-----------------------------------------------------
A|-----------------------------------------------------
E|-----------------------------------------------------
Sacchi Tu Hai..Saccha..Main Hun..
E|--------------------------------------------------------------------------
B|--------1-----1-----2--------1-----2--------1-----2--------4-----5--------
G|--1-----------------------------------------------------------------------
D|--------------------------------------------------------------------------
A|--------------------------------------------------------------------------
E|--------------------------------------------------------------------------
Apney Dill Ki Baate..
E|-----------------------------------------------------
B|--2--2------2\7------5\4-----2---------4\2-----1-----
G|-----------------------------------------------------
D|-----------------------------------------------------
A|-----------------------------------------------------
E|-----------------------------------------------------
Dastak Haatho Mein Haatho Se Karde Tu
E|-----------------------------------------------------------------------
B|---------------0/2---0/2--0------0/2---0/2--0--------------------------
G|--1-----3--3---------------------------------------1/3---1/3--1--------
D|-----------------------------------------------------------------------
A|-----------------------------------------------------------------------
E|-----------------------------------------------------------------------
Na Kar Aankho Mein Aankho Ke Parde Tu
E|-----------------------------------------------------------------------
B|---------------0/2---0h2--0------0/2---0/2--0--------------------------
G|--1-----3--3---------------------------------------1/3---1/3--1--------
D|-----------------------------------------------------------------------
A|-----------------------------------------------------------------------
E|-----------------------------------------------------------------------
Kya Ye Itna Bara Kaam Hai..Aelaan Hai...
E|-----------------------------------------------------------------------------------------------------------------
B|--------------0--0--2-----4--2------5/4-----2--------------------------0-----2------1/2------------4/2--1--------
G|--1-----3---------------------------------------4/3---------2/3--------------------------------------------------
D|-----------------------------------------------------------------------------------------------------------------
A|-----------------------------------------------------------------------------------------------------------------
E|-----------------------------------------------------------------------------------------------------------------
Jab Tak Jaha Mein Subha Shaam Hai
E|--------------------------------------------------------------
B|--------------------2-----4-----5---4/5-----4-----2-----------
G|--1-----1--1-----1-----------------------------------1--------
D|-----4--------------------------------------------------------
A|--------------------------------------------------------------
E|--------------------------------------------------------------
Tab Tak Mere Naam Tu...
E|-----------------------------------------------
B|--------------------------2--------------------
G|--1-----1--1-----1--4-----------4--3-----------
D|-----4-----------------------------------------
A|-----------------------------------------------
E|-----------------------------------------------
Jab Tak Jaha Mein Mera naam Hai
E|-----------------------------------------------------------
B|--------------------2-----4-----5---4/5--4-----2-----------
G|--1-----1--1-----1--------------------------------1--------
D|-----4-----------------------------------------------------
A|-----------------------------------------------------------
E|-----------------------------------------------------------
Tab Tak Mere Naam Tu
E|-----------------------------------------------
B|-----------------------------------------------
G|--1--------------1-----------------------------
D|-----4--2--4--------4-----2-----1--------------
A|-----------------------------------4-----------
E|-----------------------------------------------
Jab Tak Jaha Mein Subha Shaam Hai
E|--------------------------------------------------------------
B|--------------------2-----4-----5---4/5--4-----2--------------
G|--1-----1--1-----1--------------------------------1-----------
D|-----4--------------------------------------------------------
A|--------------------------------------------------------------
E|--------------------------------------------------------------
Tab Tak Mere Naam Tu...
E|-----------------------------------------------------
B|--------------------------2-----4--2-----------------
G|--1-----1--1-----1--4-----------------4--3-----------
D|-----4-----------------------------------------------
A|-----------------------------------------------------
E|-----------------------------------------------------
Jab Tak Jaha Mein Mera Naam Hai
E|-----------------------------------------------------------------------
B|--------------------2-----4-----5---4/5-----4-----2--------------------
G|--1-----1--1-----1---------------------------------------4/-2/1--------
D|-----4-----------------------------------------------------------------
A|-----------------------------------------------------------------------
E|-----------------------------------------------------------------------
Tab Tak Mere Naam Tu.
E|--------------------------------------------------------
B|--------------------------2------4/2---2h4--2-----------
G|--1--------------1--4-----------------------------------
D|-----4--2--4--------------------------------------------
A|--------------------------------------------------------
E|--------------------------------------------------------

Paste any tab in acousterr's tab maker and we'll play it !!!
Now supports capo and sound effects for vibrato/pull-off/hammer/bends/mutes etc !!! Checkout help section
tabs and chords, guitar tabs, music transcription, music technology, deep learning, music information retrieval, transcribe into tabs & chords, chordify, music renditions, songsterr, reverbnation, tabulature, bollywood chords, ultimate guitar, yousician, guitar lessons, acoustic guitar, electric guitar, guitar tuner, 911 tabs