Guitar Tabs for Wo Lamhe - Atif Aslam Tabs

(/) Slide Up  (\) Slide Down  (h) Hammer On  (p) Pull Off  (b) Bend (r) Release (v) Vibrato

Tabs for Song : Wo Lamhe

Wo Lamhe, wo baatein, koi na jaane
E|--0--------------0--------------------0--------------
B|-----4--2--4--------4--2--4-----4--2-----4-----------
G|--------------------------------------------4--3-----
D|-----------------------------------------------------
A|-----------------------------------------------------
E|-----------------------------------------------------

Thi kaisi raatein,hooo, barsaatein,
E|--0--0--------------------------------------------
B|--------4--2--4-----2--4--2-----------------0-----
G|-----------------------------4--3-----3--4--------
D|--------------------------------------------------
A|--------------------------------------------------
E|--------------------------------------------------

Wo bheegi bheegi yaadein,
E|-----------------------------------
B|--------------2--------------------
G|--1--1--3--4-----3--1--3--1--------
D|-----------------------------4-----
A|-----------------------------------
E|-----------------------------------

Wo bheegi bheegi yaadein...
E|-----------------------------------------
B|--------------2--------------------------
G|--1--1--3--4-----3--1--3--1--3--1--------
D|-----------------------------------4-----
A|-----------------------------------------
E|-----------------------------------------


Na main jaanon,
E|-----------------
B|-----------------
G|-----1--4--3-----
D|--4--------------
A|-----------------
E|-----------------

Na tu jaane,
E|--------0--------------
B|--4--2-----4-----------
G|--------------4--3-----
D|-----------------------
A|-----------------------
E|-----------------------

Kaisa hai ye mausam,
E|-----------------------
B|-----------------------
G|-----1--1--1--4--3-----
D|--4--------------------
A|-----------------------
E|-----------------------

Koi na jaane,
E|--------0--------------
B|--4--2-----4-----------
G|--------------4--3-----
D|-----------------------
A|-----------------------
E|-----------------------

Kahi se hai fizaa aayi,
E|-----------------2--0--------
B|-----------------------4-----
G|--3--3--4--4--4--------------
D|-----------------------------
A|-----------------------------
E|-----------------------------

Ghamon ki dhoop sang laayi,
E|-----------------2--0--------
B|-----------------------4-----
G|--3--3--4--4--4--------------
D|-----------------------------
A|-----------------------------
E|-----------------------------

Khafaa hogaye tum,
E|-----------0--------------
B|--4--4--2-----4-----2-----
G|-----------------4--------
D|--------------------------
A|--------------------------
E|--------------------------

Judaa hogaye hum,
E|-----------0--------------
B|--4--4--2-----4-----2-----
G|-----------------4--------
D|--------------------------
A|--------------------------
E|--------------------------

Saagar ki gehraayi se,
E|--------------------------------
B|--4--2--2-----------4--2--2-----
G|--------------4--4--------------
D|--------------------------------
A|--------------------------------
E|--------------------------------

Gehra hai apna pyaar,
E|--------------------------------------
B|-----------2--------------------------
G|--3--4--3-----3--1--3--1--3--1--------
D|--------------------------------4-----
A|--------------------------------------
E|--------------------------------------

Sehraoun ki in hawaon me,
E|-----------------------------------
B|--------4--2--2--------4--2--2-----
G|-----------------------------------
D|--4--4-----------4--4--------------
A|-----------------------------------
E|-----------------------------------

Kaise aayegi bahaar,
E|-----------------0--------------------
B|-----------4--2-----4--2--4--2--------
G|--3--3--3-----------------------4-----
D|--------------------------------------
A|--------------------------------------
E|--------------------------------------

Kahan se ye hawa aayi,
E|-----------------2--0--------
B|-----------------------4-----
G|--3--3--4--4--4--------------
D|-----------------------------
A|-----------------------------
E|-----------------------------

Ghataayen kaali kyoun chhaayi,
E|-----------------2--0--------
B|-----------------------4-----
G|--3--3--4--4--4--------------
D|-----------------------------
A|-----------------------------
E|-----------------------------

Khafaa hogaye tum,
E|-----------0--------------
B|--4--4--2-----4-----2-----
G|-----------------4--------
D|--------------------------
A|--------------------------
E|--------------------------

Judaa hogaye hum,
E|-----------0--------------
B|--4--4--2-----4-----2-----
G|-----------------4--------
D|--------------------------
A|--------------------------
E|--------------------------


tabs and chords, guitar tabs, music contests, music covers, songsterr, reverbnation, renditions, tabulature, bollywood chords, ultimate guitar, yousician, guitar lessons, torrins, fender, gibson, acoustic guitar, electric guitar, youtube covers, gootar, guitar tuner, A-Z tabs, 911 tabs