Guitar Tabs for Gulabi Aankhen Atif Aslam

(/) Slide Up  (\) Slide Down  (h) Hammer On  (p) Pull Off  (b) Bend (r) Release (v) Vibrato

Tabs for Song : Gulabi Aakhen

Gulabi Ankhen jo teri dekhi
E|--------------8--8--------8--7--8------8/10----7--
B|--5--5--5-----------------------------------------
G|--------------------------------------------------
D|--------------------------------------------------
A|--------------------------------------------------
E|--------------------------------------------------

Sarabi ye dil ho gaya....
E|-----7--5--7------7/8-----5--------5--4------4/7--
B|--------------------------------------------------
G|--------------------------------------------------
D|--------------------------------------------------
A|--------------------------------------------------
E|--------------------------------------------------

Sambhalo mujhko o mere yaaro
E|-----------------8-----8--------8--7--8------8/10----7--
B|-----5--5--5--------------------------------------------
G|--------------------------------------------------------
D|--------------------------------------------------------
A|--------------------------------------------------------
E|--------------------------------------------------------

Sambhalna mushkil ho gaya...
E|-----7--5--7------7/8-----5--------5-----4------4/7-----------
B|--------------------------------------------------------------
G|--------------------------------------------------------------
D|--------------------------------------------------------------
A|--------------------------------------------------------------
E|--------------------------------------------------------------

Now supports capo and sound effects for vibrato/pull-off/hammer/bends etc !!! Checkout help section
tabs and chords, guitar tabs, music transcription, music technology, deep learning, music information retrieval, transcribe into tabs & chords, chordify, music renditions, songsterr, reverbnation, tabulature, bollywood chords, ultimate guitar, yousician, guitar lessons, acoustic guitar, electric guitar, guitar tuner, 911 tabs