Guitar Tabs for With/without Me

(/) Slide Up  (\) Slide Down  (h) Hammer On  (p) Pull Off  (b) Bend (r) Release (v) Vibrato (x) Muted

Tabs for Song : 
BPM : 84

So it goes...
E|-------------------------------------------------------------------------------------------------------
B|-------------------------------------------------------------------------------------------------------
G|---7--6-7-6--6-----------------------------------------------------------------------------------------------
D|---------------7-4--3-4-3-------------------------------------------------------3----------------------------
A|--------------------------4--5---4-5-4--4-----------0-2---------------------------3--2/----------------------------
D|------------------------------------------7--4--2-4-----0--0-1-2---5-6-7--7--3-----------------------------------------

Back and forth across the sea...                                          With or without me... 
E|----------------------------------------------------------------------------------------------------------
B|--------12---/14--12----------------------------------------------------------------------------------------------
G|------11---11--------14-----------------------------------4---/6-4---------------/5-4----------------------------------
D|--/9----------------------11--h14---11-h12-p11---7-------4---4------7----------2-3-----7----------------------------------------
A|-----------------------------------------------------2------------------2-3-4----------------------------------
D|----------------------------------------------------------------------------------------------------------

Riff
E|------------------------------------------------------------------------------------------
B|------------------------------------------------------------------------------------------
G|----------------------------------------5----/10-9-7--------------------------------------------
D|---------------------------4----------5---5----------7---------------------------------------
A|-------------6-7-8---8/------4---5-------------------------------------------------------------------
D|--7---7-6------------- 4-------------------------------7------3--2--------------------------------
tabs and chords, guitar tabs, music transcription, music technology, deep learning, music information retrieval, transcribe into tabs & chords, chordify, music renditions, songsterr, reverbnation, tabulature, bollywood chords, ultimate guitar, yousician, guitar lessons, acoustic guitar, electric guitar, guitar tuner, 911 tabs