Guitar Tabs for Without You Ashes Remain

(/) Slide Up  (\) Slide Down  (h) Hammer On  (p) Pull Off  (b) Bend (r) Release (v) Vibrato (x) Muted

Tabs & Chords
BPM : 156.0
Check Track 2 for Chord Positions 

    D#m                                          B                                            
E|--------------------------------------------------------------------------------------------
B|-----------------------------------------4-----------------0-----------0-----------0--------
G|--3-----------3-----------3-----------------------------------------------------------------
D|-----4--1--4-----4--1--4-----4--1--4--------------4--1--------4--1--4-----4--1--------4--1--
A|-----------------------------------------------2--------------------------------------------
E|--------------------------------------------------------------------------------------------

       F#                                              C#                                     
E|-----------------------------------------------2--------------------------------------------
B|--------------------------------------------------------------------------------------------
G|-----3--------------------------------3-----------------------1-----------1-----------1-----
D|--4-----4-----4--------4-----4-----4-----4-----------3-----3-----3-----3-----3-----3-----3--
A|-----------4--------4-----------4-----------4-----------4-----------4-----------4-----------
E|--------------------------------------------------------------------------------------------

             D#m                                 B                                   F#       
E|-----------------------------2--------------------------------------------------------------
B|--------------4-----------------------------------------0--------0--------------------------
G|--------------------3-----3--------1-----1-----------------------------------1-----3--------
D|-----3-----4-----------------------------------4--1--4-----4-----------4--------------------
A|--4--------------------------------------------------------------------------------------4--
E|--------------------------------------------------------------------------------------------

                                     C#                               D#m                     
E|--------------------------------------------------------------4-----------------------------
B|--------------------------------------------------------------------------4-----------------
G|-----3--------------------1--3-----------1-----------------1-----------------1--3--------1--
D|--------4--------4-----------------3--------3--3-----3--------------4-----------------1-----
A|-----------4--------4-----------------------------------------------------------------------
E|--------------------------------------------------------------------------------------------

          B                                
E|-----------------------------------------
B|--------------0-----0--------------------
G|--3-----3--------------------------------
D|--------------------------1--4--1-----1--
A|-----------------------------------------
E|-----------------------------------------

Guitar Tabs for Without You Ashes Remain






    D#m                                          B                                            
E|--6--------------------------------------------2--------------------------------------------
B|--7--------------------------------------------4--------------------------------------------
G|--8--------------------------------------------4--------------------------------------------
D|--8--------------------------------------------4--------------------------------------------
A|--6--------------------------------------------2--------------------------------------------
E|--------------------------------------------------------------------------------------------

       F#                                              C#                                     
E|-----2-----------------------------------------------4--------------------------------------
B|-----2-----------------------------------------------6--------------------------------------
G|-----3-----------------------------------------------6--------------------------------------
D|-----4-----------------------------------------------6--------------------------------------
A|-----4-----------------------------------------------4--------------------------------------
E|-----2--------------------------------------------------------------------------------------

             D#m                                 B                                   F#       
E|-----------6-----------------------------------2-----------------------------------2--------
B|-----------7-----------------------------------4-----------------------------------2--------
G|-----------8-----------------------------------4-----------------------------------3--------
D|-----------8-----------------------------------4-----------------------------------4--------
A|-----------6-----------------------------------2-----------------------------------4--------
E|-----------------------------------------------------------------------------------2--------

                                     C#                               D#m                     
E|-----------------------------------4--------------------------------6-----------------------
B|-----------------------------------6--------------------------------7-----------------------
G|-----------------------------------6--------------------------------8-----------------------
D|-----------------------------------6--------------------------------8-----------------------
A|-----------------------------------4--------------------------------6-----------------------
E|--------------------------------------------------------------------------------------------

          B                                
E|--------2--------------------------------
B|--------4--------------------------------
G|--------4--------------------------------
D|--------4--------------------------------
A|--------2--------------------------------
E|-----------------------------------------

tabs and chords, guitar tabs, music transcription, music technology, deep learning, music information retrieval, transcribe into tabs & chords, chordify, music renditions, songsterr, reverbnation, tabulature, bollywood chords, ultimate guitar, yousician, guitar lessons, acoustic guitar, electric guitar, guitar tuner, 911 tabs