Guitar Tabs for Windows (intro) - Sugar Candy Mountain

(/) Slide Up  (\) Slide Down  (h) Hammer On  (p) Pull Off  (b) Bend (r) Release (v) Vibrato (x) Muted

Tabs for Song : 


Song lyrics here 
E|--------------------------
B|--------------------------
G|-----------------------2--
D|-----------------0--------
A|--------0--1--3-----------
E|--3-----------------------

E|-----------------------------
B|-----------------------------
G|----- 2-----0-----------------
D|--------------3--2--------0--
A|--------------------3--------
E|-----------------------------

E|--------------------------
B|--------------------1-----
G|--0-----2--------0--------
D|--------------3-----------
A|--------------------------
E|--------------------------







tabs and chords, guitar tabs, music transcription, music technology, deep learning, music information retrieval, transcribe into tabs & chords, chordify, music renditions, songsterr, reverbnation, tabulature, bollywood chords, ultimate guitar, yousician, guitar lessons, acoustic guitar, electric guitar, guitar tuner, 911 tabs