Guitar Tabs for Candy Butcher

(/) Slide Up  (\) Slide Down  (h) Hammer On  (p) Pull Off  (b) Bend (r) Release (v) Vibrato (x) Muted

Tabs for Song : 
BPM : 200

Song Intro
D|--------------------------------------------------------------------------------------------
A|--------------------------------------------------------------------------------------------
F|--------------------------------------------------------------------------------------------
C|--------------------------------------------------------------------------------------------
G|--0--------------5--------------------------------------------------5--------------------3--
C|--0-----0--7--8--------8--7--8--7--5--8--7--5--7-----0-----0--7--8--------8--7--8--7--5--3--


D|--------------------------------------------------------------------------=-----------------
A|--------------------------------------------------------------------------------------------
F|--------------------------------------------------------------------------------------------
C|--------------------------------------------------------------------------------------------
G|--0--------------5-----------------------------------0--0-----5--0--7--0--8--0--7--0--5--7--
C|--0-----0--7--8--------8--7--8--7--5--8--7--5--7-----0--0-----5--0--7--0--8--0--7--0--5--7--

D|--------------------------------------------------------------------------------------------
A|--------------------------------------------------------------------------------------------
F|--------------------------------------------------------------------------------------------
C|--------------------------------------------------------------------------------------------
G|--0--------------5-----------------------------------0--------------5--------------------3--
C|--0-----0--7--8--------8--7--8--7--5--8--7--5--7-----0-----0--7--8--------8--7--8--7--5--3--

D|-----------------------------------------------------------------------------------------
A|-----------------------------------------------------------------------------------------
F|-----------------------------------------------------------------------------------------
C|-----------------------------------------------------------------------------------------
G|--0--------------5-----------------------------------3-----8-----7-----------------------
C|--0-----0--7--8--------8--7--8--7--5--8--7--5--7-----3-----8-----7-----------------------

Note, no need to worry about the verse, that will be backtracked.

Bridge
D|------------------------------------------------------------------------------------------------------
A|-----------------------------------------------------------------------------------------------------
F|-----------------------------------------------------------------------------------------------------
C|-----------------------------------------------------------------------------------------------------
G|--5--5--5--5--8--5--5--5--5--8--5--5--8--5--8--5-----3--3--3--3--6--3--3--3--3--6--3--3--6--3--6--3--
C|--5--5--5--5--8--5--5--5--5--8--5--5--8--5--8--5-----3--3--3--3--6--3--3--3--3--6--3--3--6--3--6--3--

D|-----------------------------------------------------------------------------------------------------
A|-----------------------------------------------------------------------------------------------------
F|-----------------------------------------------------------------------------------------------------
C|-----------------------------------------------------------------------------------------------------
G|--5--5--5--5--8--5--5--5--5--8--5--5--8--5--8--5-----5-----7-----8-----10----------------------------
C|--5--5--5--5--8--5--5--5--5--8--5--5--8--5--8--5-----5-----7-----8-----10----------------------------

Chorus
2x
D|-----------------------------------------------------------------------------------------------------
A|-----------------------------------------------------------------------------------------------------
F|-----------------------------------------------------------------------------------------------------
C|-----------------------------------------------------------------------------------------------------
G|--0-----12----12-11-10-------8--8--8--8--7--5-----------12----12-11-10----8--8--8--7--4--------------
C|--0-----------------------0-----------------------0--------------------------------------------------

D|-----------------------------------------------------------------------------------------------------
A|-----------------------------------------------------------------------------------------------------
F|-----------------------------------------------------------------------------------------------------
C|-----------------------------------------------------------------------------------------------------
G|--0-----12----12-11-10-------8--8--8--8--7--5-----5--------7--------10-------7-----------------------
C|--0-----------------------0-----------------------5--------7--------10-------7-----------------------

Breakdown before verse:
D|-----------------------------------------------------------------------------------------------------
A|-----------------------------------------------------------------------------------------------------
F|-----------------------------------------------------------------------------------------------------
C|-----------------------------------------------------------------------------------------------------
G|--5--------3--------------------5-----------------5--------3--------------------5-----3--------------
C|-----6--0-----5--0--3--5--6-----------0--------------6--0-----5--0--3--5--6-----------3--------------

D|-----------------------------------------------------------------------------------------------------
A|-----------------------------------------------------------------------------------------------------
F|-----------------------------------------------------------------------------------------------------
C|-----------------------------------------------------------------------------------------------------
G|--5--------3--------------------5-----------------3--------8--------7--------------------------------
C|-----6--0-----5--0--3--5--6-----------0-----------3--------8--------7--------------------------------

D|--
A|--
F|--
C|--
G|--
C|--

Paste any tab in acousterr's tab maker and we'll play it !!!
Now supports capo and sound effects for vibrato/pull-off/hammer/bends/mutes etc !!! Checkout help section
tabs and chords, guitar tabs, music transcription, music technology, deep learning, music information retrieval, transcribe into tabs & chords, chordify, music renditions, songsterr, reverbnation, tabulature, bollywood chords, ultimate guitar, yousician, guitar lessons, acoustic guitar, electric guitar, guitar tuner, 911 tabs