Guitar Tabs for Will He By Joji

(/) Slide Up  (\) Slide Down  (h) Hammer On  (p) Pull Off  (b) Bend (r) Release (v) Vibrato (x) Muted

Tabs for Song : 
Will he By JOji


E|--------------0-----------------------------------------0--------0-----------7-----------------------
B|-----------------------------------0-----------------------------------0-----------------------------
G|--2-----------------------------------------2--------------------------------------------------------
D|--------2--------------2--------------------------2--------------------------------------------------
A|-----------------------------2-----------------------------------------------------------------------
E|-----------------------------------------------------------------------------------------------------

E|-----------------------------------------------------------------------------------------------------
B|--------1--0--0--------------0-----0--------------1-----0-----------------0-----0--------------------
G|-----------------2-----0--2-----------2-----------------------2-----0--2-----------2-----------0--2--
D|--------------------2--------------------------------------------2--------------------------2--------
A|-----------------------------------------------------------------------------------------------------
E|-----------------------------------------------------------------------------------------------------

E|-----------------------------------------------------------------------------------------------------
B|-----------------------------------------------------------------------------------------------------
G|--2--------0--2--2--------0--2--2--------0--2--2-----------0--2--2-----------0--2--2-----------0--2--
D|--------------------------------------------------------2-----------------2-----------------2--------
A|-----------------------------------------------------------------------------------------------------
E|-----------------------------------------------------------------------------------------------------

E|-----------------------------------------------------0-----0-----------------------------------------
B|--0--------------------------------------------0--3-----3-----0-----------------0--0-----------0--3--
G|-----2--------0--2-----2-----------0--2--------------------------2--0--2--2--------------------------
D|-----------2--------------------2--------------------------------------------------------------------
A|-----------------------------------------------------------------------------------------------------
E|-----------------------------------------------------------------------------------------------------

E|--0-----0--------------------------------------------------------------------------------------------
B|-----3-----0--------------0--0-----------------------------------1--1--0-----------------------0--0--
G|--------------2--0--2--2--------------------------------------------------2--2--0-----0--2--2--------
D|-----------------------------------------------------------------------------------2-----------------
A|-----------------------------------------------------------------------------------------------------
E|-----------------------------------------------------------------------------------------------------

E|--------------0-----0--------------------------------------------------------------------------------
B|--------0--3-----3-----0--------------0--0--------------1--0--------0--------------------1--0--------
G|--------------------------2--0--2--2-----------------0--------2--0-----------2--2--------------2--0--
D|-----------------------------------------------------------------------------------------------------
A|-----------------------------------------------------------------------------------------------------
E|-----------------------------------------------------------------------------------------------------

E|--------------------------------------------------------------------------------------------------
B|-----------0--------1--0--------0--------------1--0-----------------0-----0-----0-----------0--3--
G|--2--2--2-----------------2--0--------2--2-----------2--0--2--2--2-----------------0--2-----------
D|--------------2--------------------------------------------------------2-----2--------------------
A|--------------------------------------------------------------------------------------------------
E|--------------------------------------------------------------------------------------------------

E|--0-----0--------------------------------------0-----0--------------------------------------------
B|-----3-----0--------------0--0-----------0--3-----3-----0--------------0--0-----------------------
G|--------------2--0--2--2-----------------------------------2--0--2--2-----------------------------
D|--------------------------------------------------------------------------------------------------
A|--------------------------------------------------------------------------------------------------
E|--------------------------------------------------------------------------------------------------

E|--------------------------------------------------------------------------------------------------
B|--------1--1--0-----------------------0--0-----------------0--------------0-----------------------
G|-----------------2--2--0-----0--2--2--------------------0-----0--2-----2--------------------------
D|--------------------------2-----------------------------------------------------------------------
A|--------------------------------------------------------------------------------------------------
E|--------------------------------------------------------------------------------------------------

E|--------------------------------------------------------------------------------------------------
B|--------------1--0--------0--------------1--0-----------------0--------1--0--------0--------------
G|-----------0--------2--0--------2--2-----------2--0--2--2--2-----------------2--0-----------2--2--
D|-----------------------------------------------------------------2--------------------------------
A|--------------------------------------------------------------------------------------------------
E|--------------------------------------------------------------------------------------------------

E|--------------------------------------------------0-----------------0--------0-----7--------------
B|--------1--0-----------------0-----------------------------0--------------------0-----------------
G|--------------2--0--2--2--2-----------------2-----------------2-----------------------------------
D|--------------------------------2--------------2-----2-----------2--------------------------------
A|--------------------------------------------------------2-----------------------------------------
E|--------------------------------------------------------------------------------------------------














tabs and chords, guitar tabs, music transcription, music technology, deep learning, music information retrieval, transcribe into tabs & chords, chordify, music renditions, songsterr, reverbnation, tabulature, bollywood chords, ultimate guitar, yousician, guitar lessons, acoustic guitar, electric guitar, guitar tuner, 911 tabs