Guitar Tabs for My Heart Will Go On By Celine Dion

(/) Slide Up  (\) Slide Down  (h) Hammer On  (p) Pull Off  (b) Bend (r) Release (v) Vibrato (x) Muted


Intro

E|--------4--------------7-----5--4--0-----------------------4--------------7--------7--9-----7--2--
B|--5--7--------7--5--7--------------------2-----0-----5--7--------7--5--7--------9------------------
G|--------------------------------------------2------------------------------------------------------
D|---------------------------------------------------------------------------------------------------
A|---------------------------------------------------------------------------------------------------
E|---------------------------------------------------------------------------------------------------

Verse

E|--------------------------------------------------------------------------------
B|-----------------------------------------9--------------------------------------
G|--9-----9--9--9--8--9-----9--8--9-----11----11----9--9--9--9--8--9-----8--------
D|--------------------------------------------------------------------------9-----
A|--------------------------------------------------------------------------------
E|--------------------------------------------------------------------------------

E|-----------------------------------------------------
B|-----------------9-----------------------------------
G|--9--8--9-----11----11----9--9--9--8--9-----8--------
D|-----------------------------------------------9-----
A|-----------------------------------------------------
E|-----------------------------------------------------

Chorus

E|--------------------------------------------------------------------
B|-----------------12----10-9--7-----9--10-9-----7--5--4-----5--4-----
G|--9-----11----4-----------------------------------------------------
D|--------------------------------------------------------------------
A|--------------------------------------------------------------------
E|--------------------------------------------------------------------

E|--------------------------------------------------------------------------------------------
B|-----------------12----10-9--7-----9--10-9-----7--5--4--5-----5--4--5-----7--9------7\5--5--
G|--9-----11----4-----------------------------------------------------------------------------
D|--------------------------------------------------------------------------------------------
A|--------------------------------------------------------------------------------------------
E|--------------------------------------------------------------------------------------------

Paste any tab in acousterr's tab maker and we'll play it !!!
Now supports capo and sound effects for vibrato/pull-off/hammer/bends/mutes etc !!! Checkout help section

Guitar Tabs for My Heart Will Go On By Celine Dion



Intro

E|--------------------------------------------------------------------------------------------------
B|--------------------------------------------------------------------------------------------------
G|--------------------------------------------------------------------------------------------------
D|-----------------------9--------------------------------------------------9--------9--11----9-----
A|--7--9--11----11-9--7--------11-9--7-----------------7--9--11----11-9--7--------11-------------9--
E|-----------------------------------------9--7-----------------------------------------------------

Verse

E|-----------------------------------------------------------------------------
B|-----------------------------------------------------------------------------
G|-----------------------------------------------------------------------------
D|-----------------------------------------------------------------------------
A|--7-----7--7--7--6--7-----7--6--7-----9--11-9-----7--7--7--7--6--7-----7-----
E|--------------------------------------------------------------------------7--

E|--------------------------------------------------
B|--------------------------------------------------
G|--------------------------------------------------
D|--------------------------------------------------
A|--7--6--7-----9--11-9-----7--7--7--6--7-----7-----
E|-----------------------------------------------7--

Chorus

E|--------------------------------------------------------------------
B|--------------------------------------------------------------------
G|--------------------------------------------------------------------
D|-----------------9-----7--6-----------------------------------------
A|--7-----9--------------------9-----11-12-11----9--7--6-----7--6-----
E|--------------7-----------------------------------------------------

E|--------------------------------------------------------------------------------------------
B|--------------------------------------------------------------------------------------------
G|--------------------------------------------------------------------------------------------
D|-----------------9-----7--6-----------------------------------------------------------------
A|--7-----9--------------------9-----11-12-11----9--7--6--7-----7--6--7-----9--11-----9\7--7--
E|--------------7-----------------------------------------------------------------------------

Guitar Tabs for My Heart Will Go On By Celine Dion



Intro

E|--4-----------2--------------0-----------2-----------4-----------2--------------0-----------2-----------
B|--5-----------4--------------2-----------4-----------5-----------4--------------2-----------4-----------
G|--6-----------4--------------2-----------4-----------6-----------4--------------2-----------4-----------
D|--6-----------4--------------2-----------4-----------6-----------4--------------2-----------4-----------
A|--4-----------2--------------0-----------2-----------4-----------2--------------0-----------2-----------
E|--------------------------------------------------------------------------------------------------------

Verse
  
E|--0--------------2--------0-----------0-----2-----0-----------2-----------0--
B|--0--------------4--------2-----------0-----4-----0-----------4-----------2--
G|--1--------------4--------2-----------1-----4-----1-----------4-----------2--
D|--2--------------4--------2-----------2-----4-----2-----------4-----------2--
A|--2--------------2--------0-----------2-----2-----2-----------2-----------0--
E|--0-----------------------------------0-----------0--------------------------

E|--0-----------0-----2-----0--------2-----------0-----
B|--2-----------0-----4-----0--------4-----------2-----
G|--2-----------1-----4-----1--------4-----------2-----
D|--2-----------2-----4-----2--------4-----------2-----
A|--0-----------2-----2-----2--------2-----------0-----
E|--------------0-----------0--------------------------

Chorus

E|--4-----2--------0-----------2--------4--------------2--------------0-----
B|--5-----4--------2-----------4--------5--------------4--------------2-----
G|--6-----4--------2-----------4--------6--------------4--------------2-----
D|--6-----4--------2-----------4--------6--------------4--------------2-----
A|--4-----2--------0-----------2--------4--------------2--------------0-----
E|--------------------------------------------------------------------------

E|--4-----2--------0-----------2--------4--------------0-----------------------2-----------0-----
B|--5-----4--------2-----------4--------5--------------2-----------------------4-----------0-----
G|--6-----4--------2-----------4--------6--------------2-----------------------4-----------1-----
D|--6-----4--------2-----------4--------6--------------2-----------------------4-----------2-----
A|--4-----2--------0-----------2--------4--------------0-----------------------2-----------2-----
E|-----------------------------------------------------------------------------------------0-----




tabs and chords, guitar tabs, music transcription, music technology, deep learning, music information retrieval, transcribe into tabs & chords, chordify, music renditions, songsterr, reverbnation, tabulature, bollywood chords, ultimate guitar, yousician, guitar lessons, acoustic guitar, electric guitar, guitar tuner, 911 tabs