Bass Tabs for Wide Open Spaces

(/) Slide Up  (\) Slide Down  (h) Hammer On  (p) Pull Off  (b) Bend (r) Release (v) Vibrato (x) Muted

Tabs for Song : Wide Open Spaces
BPM : 200

Introduction:
G|------4h6---------4h6---------4h6---------4h6-----------------------------------
D|-----------------------------------------------------4--4-----------4--7--7-----
A|--7-----------7-----------7-----------7-----------7--------7-----------------7--
E|--------------------------------------------------------------------------------

Verse 1:
G|--------------------------------------------------------------------4-----------
D|--14-16-14----14-16-18----7------------------------------------4h6-----6--4-----
A|-----------------------------7--------------------------------------------------
E|-----------------------------------5--5--5--5-----7--7--7--7--------------------

Verse 2:
G|-----------------------------------------------------------------------------------------------
D|-----4--4-----------4--4-----------------------------------------------------------------------
A|--7--------7-----7-----------7-----------7-----------4--7--------------------------------------
E|--------------------------7-----------7-----7--5-----------0-----0--2--4--5--5--5--5--7--7--7--

CHORUS:
G|-----------------------------------------------------------------------------------------------
D|-----4--4--6--7--7-----------4--4--6--7--7-----------4--4--6--7-----------6--4-----------------
A|--7-----------------------7-----------------------7--------------------7--------7--4-----------
E|--------------------7--7--------------------7--7-----------------7--7-----------------7--5--7--

Verse 3 (same as V2)
G|-----------------------------------------------------------------------------------------------
D|-----4--4-----------4--4-----------------------------------------------------------------------
A|--7--------7-----7-----------7-----------7-----------4--7--------------------------------------
E|--------------------------7-----------7-----7--5-----------0-----0--2--4--5--5--5--5--7--7--7--

CHORUS
G|-----------------------------------------------------------------------------------------------
D|-----4--4--6--7--7-----------4--4--6--7--7-----------4--4--6--7-----------6--4-----------------
A|--7-----------------------7-----------------------7--------------------7--------7--4-----------
E|--------------------7--7--------------------7--7-----------------7--7-----------------7--5--7--

Violin Solo (same as verse)
G|-----------------------------------------------------------------------------------
D|-----4--4-----------4--4--------------4--4-----------4--4--------------4--7--7-----
A|--7--------7-----7-----------7-----7--------7-----7-----------7-----------------7--
E|--------------------------7--------------------------------7-----------------------

Verse 4 (rest for first two bars)
G|--------------------------------------------------------------------------
D|--------------18-16-14----14-16-18-------14-------14-13-------------------
A|-----------------------16-------------------16----------14-11-9--7--------
E|--------------------------------------------------------------------9--7--


CHORUS x4
G|-----------------------------------------------------------------------------------------------
D|-----4--4--6--7--7-----------4--4--6--7--7-----------4--4--6--7-----------6--4-----------------
A|--7-----------------------7-----------------------7--------------------7--------7--4-----------
E|--------------------7--7--------------------7--7-----------------7--7-----------------7--5--7--

G|-----------------------------------------------------------------------------------------------
D|-----4--4--6--7--7-----------4--4--6--7--7-----------4--4--6--7-----------6--4-----------------
A|--7-----------------------7-----------------------7--------------------7--------7--4-----------
E|--------------------7--7--------------------7--7-----------------7--7-----------------7--5--7--



tabs and chords, guitar tabs, music transcription, music technology, deep learning, music information retrieval, transcribe into tabs & chords, chordify, music renditions, songsterr, reverbnation, tabulature, bollywood chords, ultimate guitar, yousician, guitar lessons, acoustic guitar, electric guitar, guitar tuner, 911 tabs